Desi Chords:

0 comment(s) so far...have your say!

Tu Bole, Main Boloon (JTYJN) : Tabs


qrcode for - Tu Bole, Main Boloon (JTYJN) : TabsSong: Tu Bole, Main Boloon
Artist: A.R.Rahman
From:Jaane Tu...Ya Jaane Na (2008)


View:
{ Chords } - { Strum } - { Tabs } - { Lyrics } - { PDF } - { Videos }



Guitar Tabs:
Intro Lead:
G-----7--9---|------------------7|
B----------8-|-----------8-8h10--|
e-10---------|12p10--8-7---------|

G---------------------|----------------|-
B-10p8-8-8h10-10-10s11|-11p10-88--7--8-|-
e---------------------|----------------|-

|G major|

G-----------7--9---|----------------7|
B----------------8-|---------8-8h10--|
e-1010-1010--------|12-10-8-7--------|

G--------------------|---------------|-
B10-8-8-8h10-10-10s11|-11p10-88--7--8|-
e--------------------|---------------|-

A-10-10--9-9--9-9-10-10-|- (base)
D--9--9--9-9--9-9--9--9-|-


What do these symbols mean? Reading Tabs...
http://desichords.blogspot.com/2009/05/tu-bole-main-boloon-jtyjn-3-tabs.html




Liked 'Tu Bole, Main Boloon (JTYJN) : Tabs' enough to share / save?

Tu Bole, Main Boloon (JTYJN) : Tabs

Comments: 0 comment(s)...have your say!

DesiChords Tip:

Tune your guitar before you start playing.^Top^


 


# Hosted for free on Blogspot.com / "Powered by Blogger." Get yours today at www.blogger.com
# The material collected and made available through these sites is exclusively intended for private study, research & to provide study material for musicians - in good faith. (Copyrights)
# This site uses cookies to offer you a better browsing experience. Kindly read the Terms of Service & Privacy policy and continue only if you agree.
# Copyrights, wherever applicable: IndianGuitarChords.Blogspot.Com (™ ©) / Arindam Sarkar © - MMVIII - MMXVI