Desi Chords:

0 comment(s) so far...have your say!

Tu Hi Meri Shab Hai (Gangster) : Tabs, Notes


qrcode for - Tu Hi Meri Shab Hai (Gangster) : Tabs, NotesSong: Tu Hi Meri Shab Hai
Artist: K.K.
From: Gangster (2006)


View: {Chords} - {Strum & Analysis} - {Tabs} - {Plain Lyrics} - {Song & Videos}


Guitar Tabs:
Verse 1:
e-----------------------------------------
B--1-2-1----1---------------1-2-1---------
G-3------3----1---1---3---3-------3--1--3-
D---------------3-------------------------

e-----------------------------------------
B---1-2-1---1--------------1--2--1--------
G-3-------3---1--1--3---3---------3--1--3-
D-------------------------------3---------

e-1-1-1--1--2--1-4-4-6--4--2-1-1-1--------
B---------------4-----------------4p6-----
G-----------------------------------------
D-----------------------------------------

e-1-1-1-1-2-1-4-4-6-4-2--1-1-1------------
B------------4-----------------4p6--------
G-----------------------------------------
D-----------------------------------------

e----1---------1------1-------------------
B-2-4-4-2-4-4-4-2--2-4--4-2-1-------------
G-----------------------------3-----------
D-----------------------------------------

Verse 2:
e-----------------------------------------
B-2-1----1--1--1-1-2-4-4--6--1------------
G-----3-----------------------3-----------
D-------3---------------------------------

e-----------------------------------------
B-2-1-----1-1-1---1-2--4-4--6--1----------
G-----3--------------------------3--------
D-------3---------------------------------

e-----------------------------------------
B-2-1----1--1--1-1-2-4-4--6--1------------
G-----3-----------------------3-----------
D-------3---------------------------------

e-----------------------------------------
B-2-1-----1-1-1---1-2--4-4--6--1-7646-----
G-----3-----------------------------------
D-------3---------------------------------

e-1-1-6-3-1-1-6-3---1---2-----------------
B---------------------4---4-2-1-1-2-4-----
G-----------------------------------------
D-----------------------------------------

e---1-----------1---------1---------------
B-2--4-4-2-4-4-4--2--2--4---4--2--1-------
G-----------------------------------3-----
D-----------------------------------------


Original Scale: A# minor


Learn What do these symbols mean: Reading Tabs...
http://desichords.blogspot.com/2009/05/tu-hi-meri-shaab-hai-gangster-kk-3-tabs.html




Liked 'Tu Hi Meri Shab Hai (Gangster) : Tabs, Notes' enough to share / save?

Tu Hi Meri Shab Hai (Gangster) : Tabs, Notes

Comments: 0 comment(s)...have your say!

DesiChords Tip:

Tune your guitar before you start playing.^Top^


 


# Hosted for free on Blogspot.com / "Powered by Blogger." Get yours today at www.blogger.com
# The material collected and made available through these sites is exclusively intended for private study, research & to provide study material for musicians - in good faith. (Copyrights)
# This site uses cookies to offer you a better browsing experience. Kindly read the Terms of Service & Privacy policy and continue only if you agree.
# Copyrights, wherever applicable: IndianGuitarChords.Blogspot.Com (™ ©) / Arindam Sarkar © - MMVIII - MMXVI