Desi Chords:

0 comment(s) so far...have your say!

Tum Ho Toh Gaata Hai Dil (Rock On!! : Farhan Akhtar) : Tabs


qrcode for - Tum Ho Toh Gaata Hai Dil (Rock On!! : Farhan Akhtar) : TabsSong: Tum Ho Toh
Artist: Farhan Akhtar
From: Rock On!! (2008)


View:
{ Chords } - { Strum } - { Tabs } - { Lyrics } - { PDF } - { Videos }



Guitar Tabs:
Verse:
E-------------------------------------
A-------------------------------------
D----5323s5-----------------5532h33s5-
G-5---------5-----------5-------------
B--35--------35s6-53356--3-5----------
e-------------------------3-----------

E------------------------------------
A------------------------------------
D-----------------------------55-----
G--------------------------54---55---
B-535h6-5556------53-556533----------
e-----------3-3h53-------------------

Chorus:
E------------------------------------
A------------------------------------
D------------------------------------
G------------------------------------
B-5656-5656-565--5h653---------------
e--------------3---------------------X2

E-------------------------------------
A-------------------------------------
D-------------------------------------
G-----545-55--------------------------
B-5656------35-658--------------------
e------------------538-(10)s(12)(10)8-


What do these symbols mean? Reading Tabs...
http://desichords.blogspot.com/2009/05/tum-ho-toh-gaata-hai-dil-rock-on-farhan.html




Liked 'Tum Ho Toh Gaata Hai Dil (Rock On!! : Farhan Akhtar) : Tabs' enough to share / save?

Tum Ho Toh Gaata Hai Dil (Rock On!! : Farhan Akhtar) : Tabs

Comments: 0 comment(s)...have your say!

DesiChords Tip:

Tune your guitar before you start playing.^Top^


 


# Hosted for free on Blogspot.com / "Powered by Blogger." Get yours today at www.blogger.com
# The material collected and made available through these sites is exclusively intended for private study, research & to provide study material for musicians - in good faith. (Copyrights)
# This site uses cookies to offer you a better browsing experience. Kindly read the Terms of Service & Privacy policy and continue only if you agree.
# Copyrights, wherever applicable: IndianGuitarChords.Blogspot.Com (™ ©) / Arindam Sarkar © - MMVIII - MMXVI