Desi Chords:

0 comment(s) so far...have your say!

Urzu Urzu Durkut (Yahan : Shreya Ghoshal) : Tabs


qrcode for - Urzu Urzu Durkut (Yahan : Shreya Ghoshal) : TabsSong:: Urzu, Urzu Durkut
Artist: Shreya Ghosal
From: Yahaan (2005)


View:
{ Chords } - { Strum } - { Tabs } - { Lyrics } - { PDF } - { Videos }



Guitar Tabs:
Verse:
E------------------------------------
A------------------------------------
D--------------97--------------------
G-----55-55-555----------------------
B-556--------------------------------
e----3-------------------------------X4

Chorus:
E---------------------------------------
A---------------------------------------
D---------------------------------------
G---5----------5---------5-------5------
B-53--55-66--53-55-66--53-5-66-53-55-66-
e-------3---------3--------3--------3---

Bridge:
<-------X3------->
E-----------------|-------------------
A-----------------|-------------------
D-----------------|-------------------
G-55--------------|-------------------
B---556-68s(10)888|-8---8-8---8-------
e-----------------|--587---587--------

E------------------------------------
A------------------------------------
D------------------------------------
G-----7------------------------------
B-8--6-68s(10)888--------------------
e--65--------------------------------X2


What do these symbols mean? Reading Tabs...
http://desichords.blogspot.com/2009/05/urzu-urzu-durkut-yahan-shreya-ghoshal-3.html




Liked 'Urzu Urzu Durkut (Yahan : Shreya Ghoshal) : Tabs' enough to share / save?

Urzu Urzu Durkut (Yahan : Shreya Ghoshal) : Tabs

Comments: 0 comment(s)...have your say!

DesiChords Tip:

Tune your guitar before you start playing.^Top^


 


# Hosted for free on Blogspot.com / "Powered by Blogger." Get yours today at www.blogger.com
# The material collected and made available through these sites is exclusively intended for private study, research & to provide study material for musicians - in good faith. (Copyrights)
# This site uses cookies to offer you a better browsing experience. Kindly read the Terms of Service & Privacy policy and continue only if you agree.
# Copyrights, wherever applicable: IndianGuitarChords.Blogspot.Com (™ ©) / Arindam Sarkar © - MMVIII - MMXVI