Desi Chords:

0 comment(s) so far...have your say!

Vande Mataram (Maa Tujhe Salaam : A. R. Rahman) : Tabs


qrcode for - Vande Mataram (Maa Tujhe Salaam : A. R. Rahman) : TabsSong: Vande Mataram (Maa Tujhe Salaam)
Artist: A. R. Rahman
From: Vande Mataram (1997)


View:
{ Chords } - { Strum } - { Tabs } - { Lyrics } - { PDF } - { Videos }



Guitar Tabs:
Verse:
E------------------------------------
A-88888888-7h888-88-88-----------88--
D---------------------788------------
G------------------------33-56565----
B------------------------------------
e------------------------------------X2

E------------------------------------
A------------------------------------
D------------------------------------
G---------------------3--3--3--------
B--6--4--6--4--6--4-44-44-44-4-------
e-3-43--3-43--3-43-------------------

E------------------------------------------
A------------------------------------------
D------------------------------------------
G-----------------------------88---88---88-
B-66-66-66-66-666-666-666--757--757--757---
e------------------------------------------

Chorus:          <-------X2-------><---X2--->
E----------------|----------------|----------
A----------------|----------------|----------
D----------------|----------------|----------
G------5-------5-|-35-----------5-|----------
B-4---4-6-4---4-6|---466s8-6-864-4|-3h4-4444-
e--1h3-----1h3---|----------------|----------

Bridge:
E------------------------------------
A------------------------------------
D------------------------------------
G-----------------------------3------
B-34-443-36444--446--6-64-4643-------
e------------------3--3--------------X2

E------------------------------------------
A------------------------------------------
D------------------------------------------
G------------------------------------------
B-444-4366-66664--646-666664-646-666-66-66-
e----------------3----------3--------------


What do these symbols mean? Reading Tabs...
http://desichords.blogspot.com/2009/05/vande-mataram-maa-tujhe-salaam-r-rahman.html




Liked 'Vande Mataram (Maa Tujhe Salaam : A. R. Rahman) : Tabs' enough to share / save?

Vande Mataram (Maa Tujhe Salaam : A. R. Rahman) : Tabs

Comments: 0 comment(s)...have your say!

DesiChords Tip:

Tune your guitar before you start playing.^Top^


 


# Hosted for free on Blogspot.com / "Powered by Blogger." Get yours today at www.blogger.com
# The material collected and made available through these sites is exclusively intended for private study, research & to provide study material for musicians - in good faith. (Copyrights)
# This site uses cookies to offer you a better browsing experience. Kindly read the Terms of Service & Privacy policy and continue only if you agree.
# Copyrights, wherever applicable: IndianGuitarChords.Blogspot.Com (™ ©) / Arindam Sarkar © - MMVIII - MMXVI