Desi Chords:

0 comment(s) so far...have your say!

Yaadon Ki Baraat Nikli Hai Aaj (Kishore, Rafi) : Tabs


qrcode for - Yaadon Ki Baraat Nikli Hai Aaj (Kishore, Rafi) : TabsSong: Yaadon Ki Baraat
Artist: Kishore Kumar, Mohammad Rafi
From: Yaadon Ki Baraat (1973)


View:
{ Chords } - { Strum } - { Tabs } - { Lyrics } - { PDF } - { Videos }



Guitar Tabs:
B---5------3---------------
G-4---4--2---2-----5-------
D----------------5---5--4--

G-----5-4------5-4---------
D---5--------5-------------
A-7-------7----------------

B---5-----3----------------
G-4--4--2--2--5--------5-4-
D------------5--5-4---5----
A-------------------7------

G------5-4-------5-4-2-----
D---5----------------------
A-7------------------------

G-2-2-2-2-2-4-2--------5-4-
D---------------5-4--5-----
A------------------7-------

G-------------5-4----------
D----------5---------------
A-7------------------------


Verse 1:
B-----3-5-3---3-5-3-3-5-3------
G-4-5-------45-----------5-4-2-

G-2-4-5-7-5-5-4-2-4-2-4-2------
D-------------------------5-5--

B------3-5-3--3-5-3-3-5-3------
G-4-4-5-----45-----------5-4-2-

G-2-4-5-7-5-5-4-2-4-2-4-2------
D-------------------------5-5--

G-----4-4--2-2--5----7-7-5-4---
D-5-5----5----4--7-7-----------
A-----7------------------------

Verse 2:
B----3-5-3-----3-5-3-3-5-3-------
G-4-5------4-5-------------5-4-2-

G-2-4-5-7-5-5-5-4-2-4-2-2-4-2----
D----------------------------5-5-

G-----4-4--2-2-5----7---7-5-4----
D-5-5-----5---4-7-7--------------
A----7---------------------------


What do these symbols mean? Reading Tabs...
http://desichords.blogspot.com/2009/05/yaadon-ki-baraat-nikli-hai-aaj-kishore.html




Liked 'Yaadon Ki Baraat Nikli Hai Aaj (Kishore, Rafi) : Tabs' enough to share / save?

Yaadon Ki Baraat Nikli Hai Aaj (Kishore, Rafi) : Tabs

Comments: 0 comment(s)...have your say!

DesiChords Tip:

Tune your guitar before you start playing.^Top^


 


# Hosted for free on Blogspot.com / "Powered by Blogger." Get yours today at www.blogger.com
# The material collected and made available through these sites is exclusively intended for private study, research & to provide study material for musicians - in good faith. (Copyrights)
# This site uses cookies to offer you a better browsing experience. Kindly read the Terms of Service & Privacy policy and continue only if you agree.
# Copyrights, wherever applicable: IndianGuitarChords.Blogspot.Com (™ ©) / Arindam Sarkar © - MMVIII - MMXVI