Desi Chords:

0 comment(s) so far...have your say!

Yeh Dosti Hum Nahi Chorenge (Sholay : Kishore Kumar) : Tabs


qrcode for - Yeh Dosti Hum Nahi Chorenge (Sholay : Kishore Kumar) : TabsSong: Yeh Dosti Hum Nahi Chorenge
Artist: Kishore Kumar and Manna De
From: Sholay (1975)


View:
{ Chords } - { Strum } - { Tabs } - { Lyrics } - { PDF } - { Videos }



Guitar Tabs:
e------------9-7----------------------
B-9-7------------9-7-7----------------
G-----9-9--9------------9-------------

e----------7--------------------------
B-9-9-10-10--10-9-7--7-7-9-9-9-7------
G-------------------------------9-9---

Verse:

e-7-7-7-9-9-9--7-7-7--9-9-9-7-7--7--------
B------------------------------10---10-9--
G-----------------------------------------X2

e--------7--------------------------------
B-9-9-10---10-9-7-7-7-9-10-9-9-9-9-9-7----
G-------------------------------------9-9-


What do these symbols mean? Reading Tabs...
http://desichords.blogspot.com/2009/05/yeh-dosti-hum-nahi-chorenge-sholay.html




Liked 'Yeh Dosti Hum Nahi Chorenge (Sholay : Kishore Kumar) : Tabs' enough to share / save?

Yeh Dosti Hum Nahi Chorenge (Sholay : Kishore Kumar) : Tabs

Comments: 0 comment(s)...have your say!

DesiChords Tip:

Tune your guitar before you start playing.^Top^


 


# Hosted for free on Blogspot.com / "Powered by Blogger." Get yours today at www.blogger.com
# The material collected and made available through these sites is exclusively intended for private study, research & to provide study material for musicians - in good faith. (Copyrights)
# This site uses cookies to offer you a better browsing experience. Kindly read the Terms of Service & Privacy policy and continue only if you agree.
# Copyrights, wherever applicable: IndianGuitarChords.Blogspot.Com (™ ©) / Arindam Sarkar © - MMVIII - MMXVI