Desi Chords:

0 comment(s) so far...have your say!

Yeh Hai Bombay Meri Jaan (CID : Mohammad Rafi, Geeta Dutt) : Tabs


qrcode for - Yeh Hai Bombay Meri Jaan (CID : Mohammad Rafi, Geeta Dutt) : TabsSong:Yeh Hai Bombay Meri Jaan
Artist:Mohammad Rafi, Geeta Dutt
From: C.I.D.(1956)


View:
{ Chords } - { Strum } - { Tabs } - { Lyrics } - { PDF } - { Videos }



Guitar Tabs:
e--------0-----3-3-0-----------
B-1--------1-1-------3---------
G----0-0-----------------------
D------------------------------
A------------------------------
E------------------------------

e---0-1-1--0-3-0-0----0------------
B-3-----------------1---3-1-0-3-1--
G----------------------------------
D----------------------------------
A----------------------------------
E----------------------------------

e-1-3-5-5--1-3-5-5--1-3-5-5--1-0---
B--------------------------------3-
G----------------------------------
D----------------------------------
A----------------------------------
E----------------------------------

e-3-5-7-7--3-5-7-7--3-5-7-7--7-10-8-
B-----------------------------------
G-----------------------------------
D-----------------------------------
A-----------------------------------
E-----------------------------------

e-5-7-8--5-1-1--0---3--0-----------
B-----------------3------3-1-------
G----------------------------------
D----------------------------------
A----------------------------------
E----------------------------------


What do these symbols mean? Reading Tabs...
http://desichords.blogspot.com/2009/05/yeh-hai-bombay-meri-jaan-cid-mohammad.html




Liked 'Yeh Hai Bombay Meri Jaan (CID : Mohammad Rafi, Geeta Dutt) : Tabs' enough to share / save?

Yeh Hai Bombay Meri Jaan (CID : Mohammad Rafi, Geeta Dutt) : Tabs

Comments: 0 comment(s)...have your say!

DesiChords Tip:

Tune your guitar before you start playing.^Top^


 


# Hosted for free on Blogspot.com / "Powered by Blogger." Get yours today at www.blogger.com
# The material collected and made available through these sites is exclusively intended for private study, research & to provide study material for musicians - in good faith. (Copyrights)
# This site uses cookies to offer you a better browsing experience. Kindly read the Terms of Service & Privacy policy and continue only if you agree.
# Copyrights, wherever applicable: IndianGuitarChords.Blogspot.Com (™ ©) / Arindam Sarkar © - MMVIII - MMXVI