Desi Chords:

0 comment(s) so far...have your say!

Hai Apna Dil To Aawara : Tabs


qrcode for - Hai Apna Dil To Aawara : TabsSong: Hai Apna Dil To Aawara
Artist:Hemanta Kumar Mukhopadhyay
From:Solva Saal(1958)


View:
{ Chords } - { Strum } - { Tabs } - { Lyrics } - { PDF } - { Videos }



Guitar Tabs:
Chorus:
E-----------------------------------
A-5-----------5---------------------
D--5--5-542--2-2455---5-45----------
G---24-2-----------2-4-2------------
B-----------------------------------
e-----------------------------------X2

Verses:
E------------------------------------
A------------------------------------
D------------------------------------
G-2h44444-42-44444-42-55555-45--5544-
B-----------------------------33-----
e------------------------------------X2


E-----------------------------------
A-5-----------5---------------------
D--5--5-542--2-2455---5-45----------
G---24-2-----------2-4-2------------
B-----------------------------------
e-----------------------------------X3


What do these symbols mean? Reading Tabs...
http://desichords.blogspot.com/2009/07/hai-apna-dil-to-aawara-2-3-tabs-n-pdf.html




Liked 'Hai Apna Dil To Aawara : Tabs' enough to share / save?

Hai Apna Dil To Aawara : Tabs

Comments: 0 comment(s)...have your say!

DesiChords Tip:

Tune your guitar before you start playing.^Top^


 


# Hosted for free on Blogspot.com / "Powered by Blogger." Get yours today at www.blogger.com
# The material collected and made available through these sites is exclusively intended for private study, research & to provide study material for musicians - in good faith. (Copyrights)
# This site uses cookies to offer you a better browsing experience. Kindly read the Terms of Service & Privacy policy and continue only if you agree.
# Copyrights, wherever applicable: IndianGuitarChords.Blogspot.Com (™ ©) / Arindam Sarkar © - MMVIII - MMXVI