Desi Chords:

0 comment(s) so far...have your say!

Hai Junoon - New York : Tabs


qrcode for - Hai Junoon - New York : TabsSong: Hai Junoon
Artist:K. K.
From: New York (2009)


View:
{ Chords } - { Strum } - { Tabs } - { Lyrics } - { PDF } - { Videos }



Guitar Tabs:
Basic Theme:

(Initial lines of the chorus)
E------------------------------------
A------------------------------------
D------------------------------------
G------2-----------------------------
B-23-33-332-230-320-33--3--(23....)--
e---------------------20-0-----------

(Hai junoon......)
E------------------------------------
A------------------------------------
D------------------------------------
G-7767---------------7---------------
B------8-7-56h765-775-5-5h7-7p5------
e-----5------------------------------


What do these symbols mean? Reading Tabs...
http://desichords.blogspot.com/2009/07/hai-junoon-new-york-3-tabs-n-pdf.html




Liked 'Hai Junoon - New York : Tabs' enough to share / save?

Hai Junoon - New York : Tabs

Comments: 0 comment(s)...have your say!

DesiChords Tip:

Tune your guitar before you start playing.^Top^


 


# Hosted for free on Blogspot.com / "Powered by Blogger." Get yours today at www.blogger.com
# The material collected and made available through these sites is exclusively intended for private study, research & to provide study material for musicians - in good faith. (Copyrights)
# This site uses cookies to offer you a better browsing experience. Kindly read the Terms of Service & Privacy policy and continue only if you agree.
# Copyrights, wherever applicable: IndianGuitarChords.Blogspot.Com (™ ©) / Arindam Sarkar © - MMVIII - MMXVI