Desi Chords:

0 comment(s) so far...have your say!

Limca Ad - Chura Lo Na : Tabs


qrcode for - Limca Ad - Chura Lo Na : TabsView:
{ Chords } - { Strum } - { Tabs } - { Lyrics } - { PDF } - { Videos }



Guitar Tabs:
Bass Line / Tune:
E-------{(55)(55)}-{(33)(33)}-{(55)(55)}-
A-{5-(55)}-------------------------------
(Play with full C# type bar shape of D major at II)
(Play the song in D(VII))

E-------------------------------------
A-------------------------------------
D-------------------------------------
G----7----------7---------------------
B-7-7-578----7-7-578--7---------------
e--5-----5----5-----5----------------- X2

E------------------------------------
A------------------------------------
D------------------------------------
G-77-----------77----------7---------
B-----------5------------5--5--------
e---77-55h75-----77-55h75------------

E------------------------------------
A------------------------------------
D-7--------7-------------------------
G-----------------------77-7---------
B--55-57-88-55-57-88-555--5----------
e------------------------------------


What do these symbols mean? Reading Tabs...
http://desichords.blogspot.com/2009/07/limca-ad-chura-lo-na-3-tabs-n-pdf.html




Liked 'Limca Ad - Chura Lo Na : Tabs' enough to share / save?

Limca Ad - Chura Lo Na : Tabs

Comments: 0 comment(s)...have your say!

DesiChords Tip:

Tune your guitar before you start playing.^Top^


 


# Hosted for free on Blogspot.com / "Powered by Blogger." Get yours today at www.blogger.com
# The material collected and made available through these sites is exclusively intended for private study, research & to provide study material for musicians - in good faith. (Copyrights)
# This site uses cookies to offer you a better browsing experience. Kindly read the Terms of Service & Privacy policy and continue only if you agree.
# Copyrights, wherever applicable: IndianGuitarChords.Blogspot.Com (™ ©) / Arindam Sarkar © - MMVIII - MMXVI