Desi Chords:

0 comment(s) so far...have your say!

Yeh Mausam Ka Jaadu Hai Mitwa : Tabs


qrcode for - Yeh Mausam Ka Jaadu Hai Mitwa : TabsSong: Yeh Mausam Ka Jaadu Hai Mitwa
Artist:Lata Mangeshkar, S. P. Balasubramaniam
From: Hum Aapke Hain Koun...! (1994)


View:
{ Chords } - { Strum } - { Tabs } - { Lyrics } - { PDF } - { Videos }



Guitar Tabs:
Verses:
E---------------------|-------------------
A---------------------|-------------------
D---------------------|-------------------
G---------66----------|-------------------
B-77-99-77--77-99-777-|-------------------
e---------------------|X2}-9-6799-77-6799-

E------------------------------------
A------------------------------------
D------------------------------------
G------------------------------------
B----7---976-7---976-7---976--7-7----
e-----976-----976-----976------------


Chorus:
E----------------------------------
A----------------------------------
D----------------------------------
G-6------------6-------------------
B--7-9----------7-9----------------
e---6-67-6-679---6-67-6-679--------


E-----------------------------------------
A-----------------------------------------
D-----------------------------------------
G------------------------66h88-88---------
B--------97-77----9-7h976--------66-799p7-
e-9-976--------676------------------------


What do these symbols mean? Reading Tabs...
http://desichords.blogspot.com/2009/07/yeh-mausam-ka-jaadu-hai-mitwa-3-tabs-n.html




Liked 'Yeh Mausam Ka Jaadu Hai Mitwa : Tabs' enough to share / save?

Yeh Mausam Ka Jaadu Hai Mitwa : Tabs

Comments: 0 comment(s)...have your say!

DesiChords Tip:

Tune your guitar before you start playing.^Top^


 


# Hosted for free on Blogspot.com / "Powered by Blogger." Get yours today at www.blogger.com
# The material collected and made available through these sites is exclusively intended for private study, research & to provide study material for musicians - in good faith. (Copyrights)
# This site uses cookies to offer you a better browsing experience. Kindly read the Terms of Service & Privacy policy and continue only if you agree.
# Copyrights, wherever applicable: IndianGuitarChords.Blogspot.Com (™ ©) / Arindam Sarkar © - MMVIII - MMXVI