Desi Chords:

0 comment(s) so far...have your say!

Dil Tadap Tadapke (Madhumati : Lata, Mukesh) : Tabs


qrcode for - Dil Tadap Tadapke (Madhumati : Lata, Mukesh) : TabsSong: Dil Tadap Tadapke Keh Raha Hai Aa Bhi Ja
Artist: Lata Mangeshkar & Mukesh
From: Madhumati (1958)


View:
{ Chords } - { Strum } - { Tabs } - { Lyrics } - { PDF } - { Videos }



Guitar Tabs:
Basic Chorus:
E--------------------7---------------
A-7-------77-457---54-45---77--------
D--7--7674------764-----764----7-----
G---64-----------------------64------
B------------------------------------
e------------------------------------ X2


Basic Verses:
E------------------------------------
A------------------------------------
D----------7-------------------------
G-64646466--4667h6-46764676--7664----
B---------------------------5--------
e------------------------------------ X2

E------------------------------------
A------------------7-764-------------
D-766-44-44-44-467--4----------------
G------------------------------------
B------------------------------------
e------------------------------------


What do these symbols mean? Reading Tabs...
http://desichords.blogspot.com/2009/08/dil-tadap-tadapke-keh-raha-hai-aa-bhi.html




Liked 'Dil Tadap Tadapke (Madhumati : Lata, Mukesh) : Tabs' enough to share / save?

Dil Tadap Tadapke (Madhumati : Lata, Mukesh) : Tabs

Comments: 0 comment(s)...have your say!

DesiChords Tip:

Tune your guitar before you start playing.^Top^


 


# Hosted for free on Blogspot.com / "Powered by Blogger." Get yours today at www.blogger.com
# The material collected and made available through these sites is exclusively intended for private study, research & to provide study material for musicians - in good faith. (Copyrights)
# This site uses cookies to offer you a better browsing experience. Kindly read the Terms of Service & Privacy policy and continue only if you agree.
# Copyrights, wherever applicable: IndianGuitarChords.Blogspot.Com (™ ©) / Arindam Sarkar © - MMVIII - MMXVI