Desi Chords:

0 comment(s) so far...have your say!

Hum Aapke Hain Koun : Tabs


qrcode for - Hum Aapke Hain Koun : TabsSong: Hum Aapke Hain Koun
Artist: Lata Mangeshkar, S. P. Balasubramaniam
From: Hum Aapke Hain Kaun...! (1994)


View:
{ Chords } - { Strum } - { Tabs } - { Lyrics } - { PDF } - { Videos }



Guitar Tabs:
Framework of the verses -
E--------------------------------------------
A--------------------------------------------
D--------------------------------------------
G-7----------------7-------------------------
B--6----------------6------------------------
e---5-5h7-55s6-6-5---5-57p5-3s7-78s(10)-87p5-


E------------------------------------
A------------------------------------
D------------------------------------
G-7-------7---7--------7s9-97--------
B--56-66-5-77--5-666-65--------------
e------------------------------------


E------------------------------------
A------------------------------------
D------------------------------------
G-7---------------7s9-97-------------
B--56-8--86h8p8-65-------------------
e-------5----------------------------


What do these symbols mean? Reading Tabs...
http://desichords.blogspot.com/2009/08/hum-aapke-hain-koun-3-tabs-n-pdf.html




Liked 'Hum Aapke Hain Koun : Tabs' enough to share / save?

Hum Aapke Hain Koun : Tabs

Comments: 0 comment(s)...have your say!

DesiChords Tip:

Tune your guitar before you start playing.^Top^


 


# Hosted for free on Blogspot.com / "Powered by Blogger." Get yours today at www.blogger.com
# The material collected and made available through these sites is exclusively intended for private study, research & to provide study material for musicians - in good faith. (Copyrights)
# This site uses cookies to offer you a better browsing experience. Kindly read the Terms of Service & Privacy policy and continue only if you agree.
# Copyrights, wherever applicable: IndianGuitarChords.Blogspot.Com (™ ©) / Arindam Sarkar © - MMVIII - MMXVI