Desi Chords:

0 comment(s) so far...have your say!

Jana Gana Mana (Indian National Anthem) : Tabs


qrcode for - Jana Gana Mana (Indian National Anthem) : TabsSong: Jana Gana Mana
Artist: Various; Composed by Rabindranath Tagore
From: Indian National Anthem


View:
{ Chords } - { Strum } - { Tabs } - { Lyrics } - { PDF } - { Videos }



Guitar Tabs:
E-----------------------------------
A-----------------------------------
D-----------------------------------
G-7---------------------------6-7---
B--577-7777-7-77-578-7-77-5-55-5----
e-----------------------------------

E-----------------------------------
A-----------------------------------
D-----------------------------------
G-77--------------------------------
B----------------8--8-8-88-875-587--
e---5-55-555-5-55-75----------------

E-----------------------------------
A-----------------------------------
D-----------------------------------
G---------------------------76-7----
B-7-77-7-75---8-888-7-77-5-5--5-----
e----------555----------------------

E-----------------------------------
A-----------------------------------
D-----------------------------------
G-7---------------------------------
B--577-7-75-758-78----87-587--------
e-----------------55-5--------------

E-----------------------------------
A-----------------------------------
D-----------------------------------
G---------76-7----------------------
B-7-75-555--5-----------------8--8--
e--------------5555-5-55-5-55--75---

E-----------------------------------
A-----------------------------------
D-----------------------------------
G------------------------------7----
B-8-88-875-587------------88--------
e--------------99(10)-989---7-------

E-----------------------------------
A-----------------------------------
D-----------------------------------
G-77------------7-------------------
B----55-77-578----------------------
e-----------------------------------


G-Clef Score:
Here. The song here is in C major scale (-2 semitones from D major).


What do these symbols mean? Reading Tabs...
http://desichords.blogspot.com/2009/08/jana-gana-mana-indian-national-anthem-3.html




Liked 'Jana Gana Mana (Indian National Anthem) : Tabs' enough to share / save?

Jana Gana Mana (Indian National Anthem) : Tabs

Comments: 0 comment(s)...have your say!

DesiChords Tip:

Tune your guitar before you start playing.^Top^


 


# Hosted for free on Blogspot.com / "Powered by Blogger." Get yours today at www.blogger.com
# The material collected and made available through these sites is exclusively intended for private study, research & to provide study material for musicians - in good faith. (Copyrights)
# This site uses cookies to offer you a better browsing experience. Kindly read the Terms of Service & Privacy policy and continue only if you agree.
# Copyrights, wherever applicable: IndianGuitarChords.Blogspot.Com (™ ©) / Arindam Sarkar © - MMVIII - MMXVI