Desi Chords:

2 comment(s) so far...have your say!

Kya Hua Tera Vada : Tabs


qrcode for - Kya Hua Tera Vada : TabsSong: Kya Hua Tera Vada
Artist: Mohammad Rafi and Sushma Shreshtha
From: Hum Kisi Se Kum Nahin (1977)


View:
{ Chords } - { Strum } - { Tabs } - { Lyrics } - { PDF } - { Videos }



Guitar Tabs:
Basic Chorus:
E------------------------------------
A------------------------------------
D------------------------------------
G------------------------------------
B--------8-------------------8-------
e-588p6-5-58-588s(10)86h8p6-5-58-----

E------------------------------------
A------------------------------------
D------------------------------------
G-----5------------------------------
B-6556--656-86-68s(10)-888(10)-------
e----------5-------------------------

E------------------------------------
A------------------------------------
D------------------------------------
G------------------------------------
B-8-8-8------------------------------
e--5-5-5h6-55------------------------

E------------------------------------
A------------------------------------
D------------------------------------
G------------------------------------
B--------8-------------------8-------
e-588p6-5-58-588s(10)86h8p6-5-58-----

Basic Verse:
E----------------------------------------
A----------------------------------------
D---------8------8-----------------------
G------777----7-7--5575s7s9-75-5s7s9-755-
B-5h665----665---------------------------
e----------------------------------------

E----------------------------------------
A----------------------------------------
D---------8------8-----------------------
G------777----7-7--5575s7s9-75-5s7s9-755-
B-5h665----665---------------------------
e----------------------------------------

E------------------------------------
A--------------8--8---------87578----
D-7-7s8-5-7s87--75-5-878-587---------
G--5---------------------------------
B------------------------------------
e------------------------------------


What do these symbols mean? Reading Tabs...
http://desichords.blogspot.com/2009/08/kya-hua-tera-vada-3-tabs-n-pdf.html




Liked 'Kya Hua Tera Vada : Tabs' enough to share / save?

Kya Hua Tera Vada : Tabs

Comments: 2 comment(s)...have your say!

Deepalisaid...

please tell in detail,that what are the "s" "p" "h"..please hlp

Dr. Arindam Sarkarsaid...

These are parts of tab notation. Read here : http://basicmusictheory.blogspot.in/2008/11/reading-guitar-tabulatute-tabs-2.html. S is slide, P is pull off and H is hammer on.

DesiChords Tip:

Tune your guitar before you start playing.^Top^


 


# Hosted for free on Blogspot.com / "Powered by Blogger." Get yours today at www.blogger.com
# The material collected and made available through these sites is exclusively intended for private study, research & to provide study material for musicians - in good faith. (Copyrights)
# This site uses cookies to offer you a better browsing experience. Kindly read the Terms of Service & Privacy policy and continue only if you agree.
# Copyrights, wherever applicable: IndianGuitarChords.Blogspot.Com (™ ©) / Arindam Sarkar © - MMVIII - MMXVI