Desi Chords:

0 comment(s) so far...have your say!

Mera Dil Bhi Kitna Pagal Hai (Saajan : Kumar Sanu) : Tabs


qrcode for - Mera Dil Bhi Kitna Pagal Hai (Saajan : Kumar Sanu) : TabsSong: Mera Dil Bhi Kitna Pagal Hai
Artist: Kumar Sanu, Alka Yagnik
From: Saajan (1991)


View:
{ Chords } - { Strum } - { Tabs } - { Lyrics } - { PDF } - { Videos }



Guitar Tabs:
Basic Chorus:
E-------------------7-77-------------
A-4577---------7--54----445---7-77---
D-----762s4-444-4----------4-4-4-----
G------------------------------------
B------------------------------------
e------------------------------------X2

E-------------------|-----------------
A-------------------|--55-------7-77--
D-----------7-7-764-|----4-4476--4----
G-64-664-464---4----|-----------------
B-------------------|-----------------
e-------------------|X2---------------

Basic Verse:
E-------------------|-------------------
A-------------------|-------------------
D-77----------------|-------------------
G----6-667-7------6-|-------------------
B-----------7-5-55--|----7-77764-676664-
e-------------------|X2-----------------

E------------------------------------
A---7------7-------------------------
D-62-46h55--2h5-22-------------------
G------------------------------------
B------------------------------------
e------------------------------------


What do these symbols mean? Reading Tabs...
http://desichords.blogspot.com/2009/08/mera-dil-bhi-kitna-pagal-hai-3-tabs-n.html




Liked 'Mera Dil Bhi Kitna Pagal Hai (Saajan : Kumar Sanu) : Tabs' enough to share / save?

Mera Dil Bhi Kitna Pagal Hai (Saajan : Kumar Sanu) : Tabs

Comments: 0 comment(s)...have your say!

DesiChords Tip:

Tune your guitar before you start playing.^Top^


 


# Hosted for free on Blogspot.com / "Powered by Blogger." Get yours today at www.blogger.com
# The material collected and made available through these sites is exclusively intended for private study, research & to provide study material for musicians - in good faith. (Copyrights)
# This site uses cookies to offer you a better browsing experience. Kindly read the Terms of Service & Privacy policy and continue only if you agree.
# Copyrights, wherever applicable: IndianGuitarChords.Blogspot.Com (™ ©) / Arindam Sarkar © - MMVIII - MMXVI