Desi Chords:

0 comment(s) so far...have your say!

Mere Sapno Ki Rani (Aradhana) : Tabs, Notes


qrcode for - Mere Sapno Ki Rani (Aradhana) : Tabs, NotesSong: Mere Sapno Ki Rani
Artist: Kishore Kumar, comp.:Sachin Dev Burman
From: Aradhana (1969)


View: {Chords} - {Strum & Analysis} - {Tabs} - {Plain Lyrics} - {Song & Videos}


Guitar Tabs:
Basic Chorus:
E------------------------------------
A------------------------------------
D-44--------------44----------555----
G---4442---2-4444---4442---2-2-------
B-------222-------------222----------
e------------------------------------

E------------------------------------
A------------------------------------
D-44---------------------------------
G---4442---45555----------44---------
B-------222--------22-5-22-----------
e-----------------2------------------

Basic Verse:
E----------------------------------------
A----------------------------------------
D-457522-457522--444---------------7-----
G---------------6---6-7644--66---66-7644-
B-----------------------------555--------
e----------------------------------------


Original Scale: B minor


Learn What do these symbols mean: Reading Tabs...
http://desichords.blogspot.com/2009/08/mere-sapno-ki-rani-3-tabs-n-pdf.html




Liked 'Mere Sapno Ki Rani (Aradhana) : Tabs, Notes' enough to share / save?

Mere Sapno Ki Rani (Aradhana) : Tabs, Notes

Comments: 0 comment(s)...have your say!

DesiChords Tip:

Tune your guitar before you start playing.^Top^


 


# Hosted for free on Blogspot.com / "Powered by Blogger." Get yours today at www.blogger.com
# The material collected and made available through these sites is exclusively intended for private study, research & to provide study material for musicians - in good faith. (Copyrights)
# This site uses cookies to offer you a better browsing experience. Kindly read the Terms of Service & Privacy policy and continue only if you agree.
# Copyrights, wherever applicable: IndianGuitarChords.Blogspot.Com (™ ©) / Arindam Sarkar © - MMVIII - MMXVI