Desi Chords:

0 comment(s) so far...have your say!

Tune Mujhe Pehchana Nahin : Tabs


qrcode for - Tune Mujhe Pehchana Nahin : TabsSong: Tune Mujhe Pehchana Nahin
Artist: Shaan (Shantanu Mukherjee)
From: Raju Chacha (2000)


View:
{ Chords } - { Strum } - { Tabs } - { Lyrics } - { PDF } - { Videos }



Guitar Tabs:
Basic Interlude (Hmmm....parts):
E------------------------------------
A------------------------------------
D-7-----7----------75s7------975s7-----
G----5p4----2p4p5-4--------57----------
B--53----53------3---------------------
e------------------------------------

Basic Chorus:
E------------------------------------
A------------------------------------
D----------------5----5-----3--------
G-224-4-4---44--4-4-42-454-2---------
B----1---1-3-------------------------
e------------------------------------

E------------------------------------
A------------------------------------
D------------------------------------
G-22------4444--4444--4-44-42--------
B---1-33-3----13----13---------------
e----1-------------------------------

Basic Verse:
E------------------------------------
A------------------------------------
D------------------------------------
G-----------4----------4-4677-7-66---
B-5-55-57-44--5555-5744--------5-----
e------------------------------------

E------------------------------------
A------------------------------------
D-77------7--7-----------------------
G---4-55-4--5------------------------
B------------------------------------
e------------------------------------


What do these symbols mean? Reading Tabs...
http://desichords.blogspot.com/2009/08/tune-mujhe-pehchana-nahin-3-tabs-n-pdf.html




Liked 'Tune Mujhe Pehchana Nahin : Tabs' enough to share / save?

Tune Mujhe Pehchana Nahin : Tabs

Comments: 0 comment(s)...have your say!

DesiChords Tip:

Tune your guitar before you start playing.^Top^


 


# Hosted for free on Blogspot.com / "Powered by Blogger." Get yours today at www.blogger.com
# The material collected and made available through these sites is exclusively intended for private study, research & to provide study material for musicians - in good faith. (Copyrights)
# This site uses cookies to offer you a better browsing experience. Kindly read the Terms of Service & Privacy policy and continue only if you agree.
# Copyrights, wherever applicable: IndianGuitarChords.Blogspot.Com (™ ©) / Arindam Sarkar © - MMVIII - MMXVI