Desi Chords:

0 comment(s) so far...have your say!

Ye Tumhari Meri Baatein (Rock On!!) : Tabs n Pdf


qrcode for - Ye Tumhari Meri Baatein (Rock On!!) : Tabs n PdfSong: Ye Tumhari Meri Baatein
Artist: Dominique Cerejo
From: Rock On!! (2008)


View:
{ Chords } - { Strum } - { Tabs } - { Lyrics } - { PDF } - { Videos }



Guitar Tabs:
Basic Theme / Intro / Outro / Interlude:
E-------------------------------------
A-3-----------------------------------
D--3p2p0-0-0-3------------------------
G--------------0----------------------
B-------------------------------------
e-------------------------------------

Basic Verse:
E-------------------------------------
A-------------------------------------
D-------------------------------------
G-5-555h75-557-7----5-555h75-557-7----
B-------------5-565-------------5-565-
e-------------------------------------

E-------------------------------------
A-------------------------------------
D-------------------------------------
G---------------7p5---------------7p5-
B-8-8-6-6666-6-5----8-8-6-6666-6-5----
e-------------------------------------

Basic Bridge:
E------------------------------------
A------------------------------------
D------------------------------------
G-5-----------55---------------------
B------3-5h66-------3663-------------
e--3h53---------3h53-----------------

E------------------------------------
A------------------------------------
D------------------------------------
G-55------------5h7-5----------------
B-------33-5s66----------------------
e---3h53-----------------------------


What do these symbols mean? Reading Tabs...
http://desichords.blogspot.com/2009/08/yeh-tumhari-meri-baatein-rock-on-3-tabs.html




Liked 'Ye Tumhari Meri Baatein (Rock On!!) : Tabs n Pdf' enough to share / save?

Ye Tumhari Meri Baatein (Rock On!!) : Tabs n Pdf

Comments: 0 comment(s)...have your say!

DesiChords Tip:

Tune your guitar before you start playing.^Top^


 


# Hosted for free on Blogspot.com / "Powered by Blogger." Get yours today at www.blogger.com
# The material collected and made available through these sites is exclusively intended for private study, research & to provide study material for musicians - in good faith. (Copyrights)
# This site uses cookies to offer you a better browsing experience. Kindly read the Terms of Service & Privacy policy and continue only if you agree.
# Copyrights, wherever applicable: IndianGuitarChords.Blogspot.Com (™ ©) / Arindam Sarkar © - MMVIII - MMXVI