Desi Chords:

0 comment(s) so far...have your say!

Zara Sa Dil Mein De Jagah Tu (Jannat - KK) : Tabs n Pdf


qrcode for - Zara Sa Dil Mein De Jagah Tu (Jannat - KK) : Tabs n PdfSong: Zara Sa (Dil Mein De Jagah Tu)
Artist: K.K
From: Jannat (2008)


View:
{ Chords } - { Strum } - { Tabs } - { Lyrics } - { PDF } - { Videos }



Guitar Tabs:
E------------------------------------
A------------------------------------
D---------775------------------------
G-7-777764----667--76-7p64-----------
B----------------55------------------
e------------------------------------x2

E------------------------------------
A------------------------------------
D----55------------------------------
G-775--6--76-7p64--------------------
B-------55---------------------------
e------------------------------------X2

E--------------------------------------
A--------------------------------------
D--------------------------------------
G---7-------7--------7-----6p5h5-6p4p2-
B-7--5h7p5---5h7p5-7--5h7p5------------
e--5-------5--------5------------------X2

Verses:
E------------------------------------
A------------------------------------
D------------------------------------
G-7--7------------7677-77------------
B--57-57-77--5575---------775--------
e----------55------------------------X2

E------------------------------------
A------------------------------------
D----55------------------------------
G-776--6--76-764---------------------
B-------55---------------------------
e------------------------------------X2


What do these symbols mean? Reading Tabs...
http://desichords.blogspot.com/2009/08/zara-sa-dil-mein-de-jagah-tu-jannat-kk.html




Liked 'Zara Sa Dil Mein De Jagah Tu (Jannat - KK) : Tabs n Pdf' enough to share / save?

Zara Sa Dil Mein De Jagah Tu (Jannat - KK) : Tabs n Pdf

Comments: 0 comment(s)...have your say!

DesiChords Tip:

Tune your guitar before you start playing.^Top^


 


# Hosted for free on Blogspot.com / "Powered by Blogger." Get yours today at www.blogger.com
# The material collected and made available through these sites is exclusively intended for private study, research & to provide study material for musicians - in good faith. (Copyrights)
# This site uses cookies to offer you a better browsing experience. Kindly read the Terms of Service & Privacy policy and continue only if you agree.
# Copyrights, wherever applicable: IndianGuitarChords.Blogspot.Com (™ ©) / Arindam Sarkar © - MMVIII - MMXVI