Desi Chords:

0 comment(s) so far...have your say!

Aaj Kal Tere Mere Pyar Ke Charche : Tabs


Song: Aaj Kal Tere Mere Pyar Ke Charche
Artist: Mohammed Rafi, Suman Kalyanpur
From: Brahmachari (1968)


View:
{ Chords } - { Strum } - { Tabs } - { Lyrics } - { PDF } - { Videos }



Guitar Tabs:
Sax Tune:
E------------------------------------
A------------------------------------
D------------------------------------
G---------------8888668--------------
B--------8888668---------------------
e-6666446----------------------------

Basic Chorus:
E------------------------------------
A------------------------------------
D-88----------------87555------------
G---57-77-5h777-77p5-----------------
B-----6------------------------------
e------------------------------------

E------------------------------------
A------------------------------------
D-78-----------------87-7h88---------
G---3h55-555-5-55h7-5----------------
B------------------------------------
e------------------------------------

Basic Verse:
E------------------------------------
A------------------------------------
D-8-8-8-8-8--------------------8-----
G--5---5---57-757--8-8-8-875-57------
B-------------------6---6---6--------
e------------------------------------X2

E------------------------------------
A------------------------------------
D---------------8--------------------
G-7-8-7-8-75--75---------------------
B--6---6----6------------------------
e------------------------------------


What do these symbols mean? Reading Tabs...




Liked 'Aaj Kal Tere Mere Pyar Ke Charche : Tabs' enough to share / save?

Aaj Kal Tere Mere Pyar Ke Charche : Tabs

Comments: 0 comment(s)...have your say!

DesiChords Tip:

Tune your guitar before you start playing.^Top^


 


# Hosted for free on Blogspot.com / "Powered by Blogger." Get yours today at www.blogger.com
# The material collected and made available through these sites is exclusively intended for private study, research & to provide study material for musicians - in good faith. (Copyrights, TOS & Privacy policy)
# Copyrights, wherever applicable: IndianGuitarChords.Blogspot.Com (™ ©) / Arindam Sarkar © - MMVIII - MMXIV