Desi Chords:

0 comment(s) so far...have your say!

Bulla Ki Jana Main Kaun (Rabbi Shergill) : Tabs


qrcode for - Bulla Ki Jana Main Kaun (Rabbi Shergill) : TabsSong: Bulla Ki Jana Main Kaun
Artist: Rabbi Shergill
From: Rabbi (2004)


View:
{ Chords } - { Strum } - { Tabs } - { Lyrics } - { PDF } - { Videos }



Guitar Tabs:
Interludes:
E-----------------------------------
A---7h9p7-7s9-----7h9p7-7s6s4-------
D-64-----------64-------------------
G-----------------------------------
B-----------------------------------
e-----------------------------------

Chorus:
E----7----7h9-7-5--------------------
A-776-6-4---------77-6474------------
D-------------------4----------------
G------------------------------------
B------------------------------------
e------------------------------------ 
(repeats)


Verses:
E----------7------------------7------
A-----77-77-----7-6h77776-7664-444---
D-64-4------64-4---------------------
G------------------------------------
B------------------------------------
e------------------------------------
(+/- repeats)

E------------------------------------
A--------777-----777-77s6-777777-7p6-
D-66-6--4----644----------------4----
G-----4------------------------------
B------------------------------------
e------------------------------------

E------------------------------------
A-999-766-9.....---------------------
D------------------------------------
G------------------------------------
B------------------------------------
e------------------------------------

Bridge:
E---------------------------------
A------------7----------------7---
D-66-66-6-6p4--66-66-6-6p4-6p4----
G--------4------------4-----------
B---------------------------------
e---------------------------------

E--------------------------------
A------------------55-5-------7--
D-7-777-7-7-7-76644----4-44464---
G------------------------------4-
B--------------------------------
e--------------------------------


What do these symbols mean? Reading Tabs...
http://desichords.blogspot.com/2009/09/bulla-ki-jana-main-kaun-rabbi-shergill.html




Liked 'Bulla Ki Jana Main Kaun (Rabbi Shergill) : Tabs' enough to share / save?

Bulla Ki Jana Main Kaun (Rabbi Shergill) : Tabs

Comments: 0 comment(s)...have your say!

DesiChords Tip:

Tune your guitar before you start playing.^Top^


 


# Hosted for free on Blogspot.com / "Powered by Blogger." Get yours today at www.blogger.com
# The material collected and made available through these sites is exclusively intended for private study, research & to provide study material for musicians - in good faith. (Copyrights)
# This site uses cookies to offer you a better browsing experience. Kindly read the Terms of Service & Privacy policy and continue only if you agree.
# Copyrights, wherever applicable: IndianGuitarChords.Blogspot.Com (™ ©) / Arindam Sarkar © - MMVIII - MMXVI