Desi Chords:

0 comment(s) so far...have your say!

Pyaar Ki Yeh Kahani Suno (Honeymoon Travels) : Tabs


qrcode for - Pyaar Ki Yeh Kahani Suno (Honeymoon Travels) : TabsSong: Pyaar Ki Yeh Kahani Suno
Artist: Sunidhi Chauhan, Gayatri Ganjawala
From: Honeymoon Travels Pvt. Ltd.


View:
{ Chords }  - { Strum }  - { Tabs }  - { Lyrics }  - { PDF }  - { Videos }



Guitar Tabs:
Basic Chorus:
E-6--------------------------------------
A--34-----6-----6-6-64--333-----6--------
D----3-334-3-343---3-------4-443-3-------
G----------------------------------------
B----------------------------------------
e----------------------------------------

E-----------------|----------------------
A----6-----6-6-64-|-------------666------
D-334-3-343---3---|------------6---343---
G-----------------|____-3333h53----------
B-----------------|<--|------------------
e-----------------|-X2|------------------

E----------------------------------------
A-33-346-86h8---------666----33-346-86h8-
D--------------------6---343-------------
G-------------3333h53--------------------
B----------------------------------------
e----------------------------------------

Basic Verse:
E------------------------------------
A------------------------------------
D-3-3--6--34-3-3--6--34-3-3--6---3---
G--3-3--43----3-3--43----5-5--343----
B------------------------------------
e------------------------------------X2

E------------------------------------
A------------------------------------
D---------------------86-------------
G-6656-6656-66-66h6-65---------------
B------------------------------------
e------------------------------------

E------------------------------------
A------------------------------------
D-8-8--8-8---------------------------
G--5-5--5-5-568----------------------
B--------------6h76------------------
e------------------------------------
What do these symbols mean? Reading Tabs...
http://desichords.blogspot.com/2009/09/pyaar-ki-yeh-kahani-suno-honeymoon.html




Liked 'Pyaar Ki Yeh Kahani Suno (Honeymoon Travels) : Tabs' enough to share / save?

Pyaar Ki Yeh Kahani Suno (Honeymoon Travels) : Tabs

Comments: 0 comment(s)...have your say!

DesiChords Tip:

Tune your guitar before you start playing.^Top^


 


# Hosted for free on Blogspot.com / "Powered by Blogger." Get yours today at www.blogger.com
# The material collected and made available through these sites is exclusively intended for private study, research & to provide study material for musicians - in good faith. (Copyrights)
# This site uses cookies to offer you a better browsing experience. Kindly read the Terms of Service & Privacy policy and continue only if you agree.
# Copyrights, wherever applicable: IndianGuitarChords.Blogspot.Com (™ ©) / Arindam Sarkar © - MMVIII - MMXVI