Desi Chords:

0 comment(s) so far...have your say!

Teri Deewani (Kailash Kher : Kailasa) : Tabs


qrcode for - Teri Deewani (Kailash Kher : Kailasa) : TabsSong: Teri Deewani
Artist: Kailash Kher, Kailasa
From: Kailasa (2006)


View:
{ Chords } - { Strum } - { Tabs } - { Lyrics } - { PDF } - { Videos }



Guitar Tabs:
Basic Theme:
E------------------------------------
A------------------------------------
D------------------------------------
G-7---------------75-55-7------------
B--77-77-77p5-78-5-------5-----------
e------------------------------------X2

E------------------------------------
A------------------------------------
D---------------79h(10)p9-57s9p7-457-
G-----5--57--457---------------------
B-578--75--5-------------------------
e------------------------------------

E-------------------------------------
A-75579-357----------357----------357-
D----------4h5p4-75------4h5p4-75-----
G-------------------4------------4----
B-------------------------------------
e-------------------------------------


What do these symbols mean? Reading Tabs...
http://desichords.blogspot.com/2009/09/teri-deewani-kailash-kher-kailasa-3.html




Liked 'Teri Deewani (Kailash Kher : Kailasa) : Tabs' enough to share / save?

Teri Deewani (Kailash Kher : Kailasa) : Tabs

Comments: 0 comment(s)...have your say!

DesiChords Tip:

Tune your guitar before you start playing.^Top^


 


# Hosted for free on Blogspot.com / "Powered by Blogger." Get yours today at www.blogger.com
# The material collected and made available through these sites is exclusively intended for private study, research & to provide study material for musicians - in good faith. (Copyrights)
# This site uses cookies to offer you a better browsing experience. Kindly read the Terms of Service & Privacy policy and continue only if you agree.
# Copyrights, wherever applicable: IndianGuitarChords.Blogspot.Com (™ ©) / Arindam Sarkar © - MMVIII - MMXVI