Desi Chords:

0 comment(s) so far...have your say!

Kahin Door Jab Din Dhal Jaaye : Tabs


qrcode for - Kahin Door Jab Din Dhal Jaaye : TabsSong: Kahin Door Jab Din Dhal Jaaye
Artist: Mukesh
From: Anand (1970)


View:
{ Chords } - { Strum } - { Tabs } - { Lyrics } - { PDF } - { Videos }



Guitar Tabs:
Basic Chorus Parts:
E------------8----8---8------8-------
A-------8-858-5-55-55--57777--5--88--
D-77-775-5---------------------55----
G------------------------------------
B------------------------------------
e------------------------------------

E-----------------------------------------
A---------------8-8------87-7-----------8-
D-----75-5787885---578-75----5----578775--
G-5545------------------------4444--------
B-----------------------------------------
e-----------------------------------------

Basic Verse Parts:
E---------------------------------------
A---------------------------------------
D----------7------8--885888-------------
G-5577-5577-5--777----------5h7-57------
B------------65-------------------57555-
e---------------------------------------

E-------------------------------------------
A------------------8-8-----84-8-----------8-
D------875-5787-875---57575----5----578775--
G-454-5-------------------------4444--------
B-------------------------------------------
e-------------------------------------------


What do these symbols mean? Reading Tabs...
http://desichords.blogspot.com/2009/10/kahin-door-jab-din-dhal-jaaye-3-tabs-n.html




Liked 'Kahin Door Jab Din Dhal Jaaye : Tabs' enough to share / save?

Kahin Door Jab Din Dhal Jaaye : Tabs

Comments: 0 comment(s)...have your say!

DesiChords Tip:

Tune your guitar before you start playing.^Top^


 


# Hosted for free on Blogspot.com / "Powered by Blogger." Get yours today at www.blogger.com
# The material collected and made available through these sites is exclusively intended for private study, research & to provide study material for musicians - in good faith. (Copyrights)
# This site uses cookies to offer you a better browsing experience. Kindly read the Terms of Service & Privacy policy and continue only if you agree.
# Copyrights, wherever applicable: IndianGuitarChords.Blogspot.Com (™ ©) / Arindam Sarkar © - MMVIII - MMXVI