Desi Chords:

0 comment(s) so far...have your say!

Maine Tere Liye Hi Saat Rang (Anand : Mukesh) : Tabs


qrcode for - Maine Tere Liye Hi Saat Rang (Anand : Mukesh) : TabsSong: Maine Tere Liye Hi Saat Rangke Sapne Chune
Artist: Mukesh
From: Anand (1970)


View:
{ Chords } - { Strum } - { Tabs } - { Lyrics } - { PDF } - { Videos }



Guitar Tabs:
Basic Chorus:
E----------------------------------------
A---------------7-666--6-7s9-764-67----7-
D----46467---464-4---64------------4-64--
G-444-----4-4----------------------------
B----------------------------------------
e----------------------------------------

E--------------------------------------
A--------------------------------------
D---466p4-467---67---------------77----
G-44---------446--464-6-6------64--4-4-
B----------------------4--45-54--------
e--------------------------------------

Basic Verse:
E------------------------------------------
A------------------------------------------
D--464-6--464-467---6-66-67-7-46-77--7-7---
G-4----4-4-------4-4-------6-------46-6-64-
B------5-----------------------------------
e------4-----------------------------------

E------------------------------------------
A-------------------------------------9--9-
D--------------98------76-7----6p7p9-9-6---
G-----64-6s8868--664-64----44--------------
B-5545-------------------------------------
e------------------------------------------


What do these symbols mean? Reading Tabs...
http://desichords.blogspot.com/2009/10/maine-tere-liye-hi-saat-rang-anand.html




Liked 'Maine Tere Liye Hi Saat Rang (Anand : Mukesh) : Tabs' enough to share / save?

Maine Tere Liye Hi Saat Rang (Anand : Mukesh) : Tabs

Comments: 0 comment(s)...have your say!

DesiChords Tip:

Tune your guitar before you start playing.^Top^


 


# Hosted for free on Blogspot.com / "Powered by Blogger." Get yours today at www.blogger.com
# The material collected and made available through these sites is exclusively intended for private study, research & to provide study material for musicians - in good faith. (Copyrights)
# This site uses cookies to offer you a better browsing experience. Kindly read the Terms of Service & Privacy policy and continue only if you agree.
# Copyrights, wherever applicable: IndianGuitarChords.Blogspot.Com (™ ©) / Arindam Sarkar © - MMVIII - MMXVI