Desi Chords:

0 comment(s) so far...have your say!

Zindagi, Kaisi Hai Paheli : Tabs


qrcode for - Zindagi, Kaisi Hai Paheli : TabsSong: Zindagi, Kaisi Hai Paheli
Artist: Manna Dey
From: Anand (1970)


View:
{ Chords } - { Strum } - { Tabs } - { Lyrics } - { PDF } - { Videos }



Guitar Tabs:
Basic Chorus:
E-------------------------------------
A-------------6h886-6-6-----------6-4-
D------------6-------3----------64-3--
G-555h6-35635----------533h5p3-3------
B-------------------------------------
e-------------------------------------

Basic Verse:
E------------------------------------
A----6--6----------------------------
D-643-43-44-44--------66-------------
G-------------33-355-3---------------
B-------------------4----------------
e------------------------------------

E------------------------------------
A------------------------------------
D-6----------------------6-43--------
G--356-6---------65-55443------------
B-----4-34-764-64--------------------
e------------------------------------


What do these symbols mean? Reading Tabs...
http://desichords.blogspot.com/2009/10/zindagi-kaisi-hai-paheli-3-tabs-n-pdf.html




Liked 'Zindagi, Kaisi Hai Paheli : Tabs' enough to share / save?

Zindagi, Kaisi Hai Paheli : Tabs

Comments: 0 comment(s)...have your say!

DesiChords Tip:

Tune your guitar before you start playing.^Top^


 


# Hosted for free on Blogspot.com / "Powered by Blogger." Get yours today at www.blogger.com
# The material collected and made available through these sites is exclusively intended for private study, research & to provide study material for musicians - in good faith. (Copyrights)
# This site uses cookies to offer you a better browsing experience. Kindly read the Terms of Service & Privacy policy and continue only if you agree.
# Copyrights, wherever applicable: IndianGuitarChords.Blogspot.Com (™ ©) / Arindam Sarkar © - MMVIII - MMXVI