Desi Chords:

0 comment(s) so far...have your say!

Iktara (Goonja Goonja Sa Hai Ektara : Wake Up Sid!) : Tabs


qrcode for - Iktara (Goonja Goonja Sa Hai Ektara : Wake Up Sid!) : TabsSong: Iktara
Artist: Amit Trivedi, Kavita Seth, Amitabh Bhattacharya
From: Wake Up Sid! (2008)


View:
{ Chords } - { Strum } - { Tabs } - { Lyrics } - { PDF } - { Videos }



Guitar Tabs:
E------------------------------------
A------------------------------------
D------------------------------------
G------------------------------------
B-------3535-------3535--------3535--
e-222323-----222323-----2223232------

E------------------------------------
A------------------------------------
D------------------5h77-755----------
G-544-222----542-54------------------
B--------3-53------------------------
e------------------------------------

PreChorus:
E---------------------------------------
A---------------------------------------
D-555-----------------------------------
G----4455-------55-------55------5----5-
B--------55----5--33----5--33---5----5--
e-----------232------232-----232--232---

E------------------------------------
A------------------------------------
D-----7h5-55-------------------------
G-5-54-------------------------------
B--3---------------------------------
e------------------------------------

Chorus:
E------------------------------------
A------------------------------------
D-55---5-5555-555-55---5-5555--------
G---222-------------222------22-2222-
B------------------------------------
e------------------------------------

E------------------------------------
A------------------------------------
D--------------5-5555----------------
G-2222-22-25422----------------------
B------------------------------------
e------------------------------------


What do these symbols mean? Reading Tabs...
http://desichords.blogspot.com/2009/11/iktara-goonja-goonja-sa-hai-ektara-wake.html




Liked 'Iktara (Goonja Goonja Sa Hai Ektara : Wake Up Sid!) : Tabs' enough to share / save?

Iktara (Goonja Goonja Sa Hai Ektara : Wake Up Sid!) : Tabs

Comments: 0 comment(s)...have your say!

DesiChords Tip:

Tune your guitar before you start playing.^Top^


 


# Hosted for free on Blogspot.com / "Powered by Blogger." Get yours today at www.blogger.com
# The material collected and made available through these sites is exclusively intended for private study, research & to provide study material for musicians - in good faith. (Copyrights)
# This site uses cookies to offer you a better browsing experience. Kindly read the Terms of Service & Privacy policy and continue only if you agree.
# Copyrights, wherever applicable: IndianGuitarChords.Blogspot.Com (™ ©) / Arindam Sarkar © - MMVIII - MMXVI