Desi Chords:

0 comment(s) so far...have your say!

Jai Ho! Jai Ho! (Slumdog Millionaire) : Tabs


qrcode for - Jai Ho! Jai Ho! (Slumdog Millionaire) : TabsSong: Jai Ho
Artist: A. R. Rahman , Singers: Various - Sukhwinder Singh, Tanvi Shah, Mahalaxmi Iyer & Vijay Prakash, Pussycat Dolls
From: Slumdog Millionaire (2008)


View:
{ Chords } - { Strum } - { Tabs } - { Lyrics } - { PDF } - { Videos }



Guitar Tabs:
Intro:
E-----------------------------------------
A-----------------------------------------
D-23232323-232--20-02-23-3----------------
G-------------------------0-02------------
B--------------11-------------01-13-13----
e-------------------------------------1-0-

E-|------------|---
A-|------------|---
D-|------------|---
G-|5-----------|---
B-|-33h5-3-----|---
e-|--------1h3-|X2-


What do these symbols mean? Reading Tabs...
http://desichords.blogspot.com/2009/11/jai-ho-jai-ho-slumdog-millionaire-3.html




Liked 'Jai Ho! Jai Ho! (Slumdog Millionaire) : Tabs' enough to share / save?

Jai Ho! Jai Ho! (Slumdog Millionaire) : Tabs

Comments: 0 comment(s)...have your say!

DesiChords Tip:

Tune your guitar before you start playing.^Top^


 


# Hosted for free on Blogspot.com / "Powered by Blogger." Get yours today at www.blogger.com
# The material collected and made available through these sites is exclusively intended for private study, research & to provide study material for musicians - in good faith. (Copyrights)
# This site uses cookies to offer you a better browsing experience. Kindly read the Terms of Service & Privacy policy and continue only if you agree.
# Copyrights, wherever applicable: IndianGuitarChords.Blogspot.Com (™ ©) / Arindam Sarkar © - MMVIII - MMXVI