Desi Chords:

0 comment(s) so far...have your say!

Kholo Kholo Darwaze (Taare Zameen Par) : Tabs


qrcode for - Kholo Kholo Darwaze (Taare Zameen Par) : TabsSong: Kholo Kholo
Artist: Raman Mahadevan, Shankar-Ehsaan-Loy
From: Taare Zameen Par (2007)


View:
{ Chords } - { Strum } - { Tabs } - { Lyrics } - { PDF } - { Videos }



Guitar Tabs:
Intro:
(Just hold the E minor chord at
 root position and play the strings)
E-0----0------------------------------
A-2-----2---2-------------------------
D---2----2-2--------------------------
G---0-----0---------------------------
B---0---------(repeats over and over)-
e---0---------------------------------

Verse:
E----------------------------------------
A----------------------------------------
D----------------------------------------
G----------------------------------------
B---------------------------------5553h5-
e-33333333-33333333-33333333--333-------X2

E------------------------------------------
A------------------------------------------
D------------------------------------------
G----------------------------------------9-
B-----(10)8-8---------(10)8h(10)-8h(10)87--
e-87-7-------5-77-87-7---------------------X2


What do these symbols mean? Reading Tabs...
http://desichords.blogspot.com/2009/11/kholo-kholo-darwaze-taare-zameen-par-3.html




Liked 'Kholo Kholo Darwaze (Taare Zameen Par) : Tabs' enough to share / save?

Kholo Kholo Darwaze (Taare Zameen Par) : Tabs

Comments: 0 comment(s)...have your say!

DesiChords Tip:

Tune your guitar before you start playing.^Top^


 


# Hosted for free on Blogspot.com / "Powered by Blogger." Get yours today at www.blogger.com
# The material collected and made available through these sites is exclusively intended for private study, research & to provide study material for musicians - in good faith. (Copyrights)
# This site uses cookies to offer you a better browsing experience. Kindly read the Terms of Service & Privacy policy and continue only if you agree.
# Copyrights, wherever applicable: IndianGuitarChords.Blogspot.Com (™ ©) / Arindam Sarkar © - MMVIII - MMXVI