Desi Chords:

0 comment(s) so far...have your say!

Kurbaan Hua (Kurbaan, Saif Ali Khan) : Tabs


qrcode for - Kurbaan Hua (Kurbaan, Saif Ali Khan) : TabsSong: Kurbaan Hua
Artist: Vishal Dadlani
From: Kurbaan (2009)


View:
{ Chords } - { Strum } - { Tabs } - { Lyrics } - { PDF } - { Videos }



Guitar Tabs:
Intro / Interlude:
E------------------------------------
A------------------------------------
D------------------------------------
G-5-5---5----------------------------
B--5-5-5-5------(repeats)------------
e----------33------------------------

Basic Verse:
E------------------------------------
A------------------------------------
D------------5-----------------------
G-5535-53535---5535-53535------------
B-----------3------------35-68(10)---
e------------------------------------

E-------------------------------------------
A-------------------------------------------
D-------------------------------------------
G-------------------------------------------
B-----------------------------------(10)----
e-(13)(12)(10)s88-(12)(10)8s66-(10)8---88---

E-------------------------------------------
A-------------------------------------------
D-------------------------------------------
G-------------------------------------------
B-------------------------------------------
e-6-8-(10)----------------------------------

E---------------------------------
A---------------------------------
D---------------------------------
G---------------------------------
B---------------------------------
e-(13)(12)(10)s88-(12)(10)8s66----

E------------------------------------
A------------------------------------
D------------------------------------
G------------------------------------
B------------------------------------
e-(10)(10)(12)(10)9------------------

Chorus:
E------------------------------------
A------------------------------------
D------------------------------------
G------------------------------------
B------------------------------------
e-(10)(12)(10)(13)-(12)-(10)-(9)-----X2


What do these symbols mean? Reading Tabs...
http://desichords.blogspot.com/2009/11/kurbaan-hua-kurbaan-saif-ali-khan-3.html




Liked 'Kurbaan Hua (Kurbaan, Saif Ali Khan) : Tabs' enough to share / save?

Kurbaan Hua (Kurbaan, Saif Ali Khan) : Tabs

Comments: 0 comment(s)...have your say!

DesiChords Tip:

Tune your guitar before you start playing.^Top^


 


# Hosted for free on Blogspot.com / "Powered by Blogger." Get yours today at www.blogger.com
# The material collected and made available through these sites is exclusively intended for private study, research & to provide study material for musicians - in good faith. (Copyrights)
# This site uses cookies to offer you a better browsing experience. Kindly read the Terms of Service & Privacy policy and continue only if you agree.
# Copyrights, wherever applicable: IndianGuitarChords.Blogspot.Com (™ ©) / Arindam Sarkar © - MMVIII - MMXVI