Desi Chords:

0 comment(s) so far...have your say!

Kya Karoon (Wake Up Sid) : Tabs


qrcode for - Kya Karoon (Wake Up Sid) : TabsSong: Kya Karoon
Artist: Clinton Cerejo
From: Wake Up Sid (2009)


View:
{ Chords } - { Strum } - { Tabs } - { Lyrics } - { PDF } - { Videos }



Guitar Tabs:
E-------------------------------------------
A-------------------------------------------
D--7-------------------7-----------------75-
G-5-5-5555-----5------5-5-5555----5-5s74----
B----------3h53-33h5----------3h53----------
e----------------------------------------{x3}

E------------------------------------
A------------------------------------
D------------------------------------
G--5-------5---5---------------------
B-3-3-65--3-3-5----------------------
e---------------------------------{x2}


What do these symbols mean? Reading Tabs...
http://desichords.blogspot.com/2009/11/kya-karoon-wake-up-sid-3-tabs-n-pdf.html




Liked 'Kya Karoon (Wake Up Sid) : Tabs' enough to share / save?

Kya Karoon (Wake Up Sid) : Tabs

Comments: 0 comment(s)...have your say!

DesiChords Tip:

Tune your guitar before you start playing.^Top^


 


# Hosted for free on Blogspot.com / "Powered by Blogger." Get yours today at www.blogger.com
# The material collected and made available through these sites is exclusively intended for private study, research & to provide study material for musicians - in good faith. (Copyrights)
# This site uses cookies to offer you a better browsing experience. Kindly read the Terms of Service & Privacy policy and continue only if you agree.
# Copyrights, wherever applicable: IndianGuitarChords.Blogspot.Com (™ ©) / Arindam Sarkar © - MMVIII - MMXVI