Desi Chords:

0 comment(s) so far...have your say!

Neele Neele Ambar Par : Tabs


qrcode for - Neele Neele Ambar Par : TabsSong: Neele Neele Ambar Par
Artist: Kishore Kumar
From: Kalaakaar (1983)


View:
{ Chords } - { Strum } - { Tabs } - { Lyrics } - { PDF } - { Videos }



Guitar Tabs:
Chorus:
E------------------------------------
A------------------------------------
D------------------------------------
G-8-----------6----------------------
B--7-9----6----6-6-6h774-------------
e---6-4h66------4---------------(x2)-

E------------------------------------
A------------------------------------
D------------------------------------
G-8-----------------------8----------
B--7-----999---6799-6677p6-----------
e---6777----666----------------------

E------------------------------------
A------------------------------------
D------------------------------------
G-8-----------6----------------------
B--7-9----6----6-6-6h774-------------
e---6-4h66------4--------------------


What do these symbols mean? Reading Tabs...
http://desichords.blogspot.com/2009/11/neele-neele-ambar-par-3-tabs-n-pdf.html




Liked 'Neele Neele Ambar Par : Tabs' enough to share / save?

Neele Neele Ambar Par : Tabs

Comments: 0 comment(s)...have your say!

DesiChords Tip:

Tune your guitar before you start playing.^Top^


 


# Hosted for free on Blogspot.com / "Powered by Blogger." Get yours today at www.blogger.com
# The material collected and made available through these sites is exclusively intended for private study, research & to provide study material for musicians - in good faith. (Copyrights)
# This site uses cookies to offer you a better browsing experience. Kindly read the Terms of Service & Privacy policy and continue only if you agree.
# Copyrights, wherever applicable: IndianGuitarChords.Blogspot.Com (™ ©) / Arindam Sarkar © - MMVIII - MMXVI