Desi Chords:

0 comment(s) so far...have your say!

Pehli Nazar Mein (Race) : Tabs


qrcode for - Pehli Nazar Mein (Race) : TabsSong: Pehli Nazar Mein
Artist: Atif Aslam
From: Race (2008)


View:
{ Chords } - { Strum } - { Tabs } - { Lyrics } - { PDF } - { Videos }



Guitar Tabs:
E------------------------------------
A------------------------------------
D-7--7---7677-76-764----------7h977--
G--66-44-------------66---7646-------
B----------------------5h7-----------
e---------------------------------X2-

E------------------------------------
A------------------------------------
D----7---7-7------767----------------
G--76--76---46-764---4h6p4-----------
B-5---5------------------------------
e------------------------------------

E------------------------------------
A------------------------------------
D-----------7-7------767-4h6p4-------
G--------764---64-764----------------
B-5--75-7----------------------------
e--54-----------------------------X2-


What do these symbols mean? Reading Tabs...
http://desichords.blogspot.com/2009/11/pehli-nazar-mein-race-3-tabs-n-pdf.html




Liked 'Pehli Nazar Mein (Race) : Tabs' enough to share / save?

Pehli Nazar Mein (Race) : Tabs

Comments: 0 comment(s)...have your say!

DesiChords Tip:

Tune your guitar before you start playing.^Top^


 


# Hosted for free on Blogspot.com / "Powered by Blogger." Get yours today at www.blogger.com
# The material collected and made available through these sites is exclusively intended for private study, research & to provide study material for musicians - in good faith. (Copyrights)
# This site uses cookies to offer you a better browsing experience. Kindly read the Terms of Service & Privacy policy and continue only if you agree.
# Copyrights, wherever applicable: IndianGuitarChords.Blogspot.Com (™ ©) / Arindam Sarkar © - MMVIII - MMXVI