Desi Chords:

0 comment(s) so far...have your say!

Phir Dekhiye (Rock On!!) : Tabs


qrcode for - Phir Dekhiye (Rock On!!) : TabsSong: Phir Dekhiye
Artist: Caralisa Monteiro
From: Rock On!! (2008)


View:
{ Chords } - { Strum } - { Tabs } - { Lyrics } - { PDF } - { Videos }



Guitar Tabs:
E-|---------------|--------------------
A-|---------------|--------------------
D-|----4h6--------|--------------------
G-|4-------4-4--44|---4----86-44----84-
B-|-242-----2-4---|--|-----------------
e-|------------2--|X2|-6h77-----6h77---

E------------------------------------
A------------------------------------
D------------------------------------
G-4686-------------------------------
B-----7------------------------------
e------------------------------------


What do these symbols mean? Reading Tabs...
http://desichords.blogspot.com/2009/11/phir-dekhiye-rock-on-3-tabs-n-pdf.html




Liked 'Phir Dekhiye (Rock On!!) : Tabs' enough to share / save?

Phir Dekhiye (Rock On!!) : Tabs

Comments: 0 comment(s)...have your say!

DesiChords Tip:

Tune your guitar before you start playing.^Top^


 


# Hosted for free on Blogspot.com / "Powered by Blogger." Get yours today at www.blogger.com
# The material collected and made available through these sites is exclusively intended for private study, research & to provide study material for musicians - in good faith. (Copyrights)
# This site uses cookies to offer you a better browsing experience. Kindly read the Terms of Service & Privacy policy and continue only if you agree.
# Copyrights, wherever applicable: IndianGuitarChords.Blogspot.Com (™ ©) / Arindam Sarkar © - MMVIII - MMXVI