Desi Chords:

0 comment(s) so far...have your say!

Prem Ki Naiyya (Ajab Prem Ki Ghazab Kahani) : Tabs


qrcode for - Prem Ki Naiyya (Ajab Prem Ki Ghazab Kahani) : TabsSong: Prem Ki Naiyya
Artist: Neeraj Shridhar, Suzanne D'Mello
From: Ajab Prem Ki Ghazab Kahani (2009)


View:
{ Chords } - { Strum } - { Tabs } - { Lyrics } - { PDF } - { Videos }



Guitar Tabs:
Licks:
E-------------------------------------
A-------------------------------------
D-------------------------------------
G-------------------------------------
B-7-------5h77-5h77-5h7-----5h77-5h77-
e--67p997--------------69976----------

Basic Chorus:
E------------------------------------
A------------------------------------
D------------------------------------
G-4--------------4-------------------
B--244--4--4-4642-244---422----------
e-----22-22----------221-------------X2

E------------------------------------
A------------------------------------
D------------------------------------
G------44h66-----44h66---------------
B-22h44-----22h44------5555p44p2-----
e------------------------------------

E-------------|--------------------------
A-------------|--------------------------
D-------------|-444----------------------
G---------431-|----334-----431h4-4444-41-
B-22h42h42----|-------22h42--------------
e-------------|--------------------------

E-----------|-------------------------
A-----------|-------------------------
D--------4--|-------------------------
G-1312-32---|-------------------------
B-----------|-------------------------
e-----------|-X2----------------------


What do these symbols mean? Reading Tabs...
http://desichords.blogspot.com/2009/11/prem-ki-naiyya-ajab-prem-ki-ghazab.html




Liked 'Prem Ki Naiyya (Ajab Prem Ki Ghazab Kahani) : Tabs' enough to share / save?

Prem Ki Naiyya (Ajab Prem Ki Ghazab Kahani) : Tabs

Comments: 0 comment(s)...have your say!

DesiChords Tip:

Tune your guitar before you start playing.^Top^


 


# Hosted for free on Blogspot.com / "Powered by Blogger." Get yours today at www.blogger.com
# The material collected and made available through these sites is exclusively intended for private study, research & to provide study material for musicians - in good faith. (Copyrights)
# This site uses cookies to offer you a better browsing experience. Kindly read the Terms of Service & Privacy policy and continue only if you agree.
# Copyrights, wherever applicable: IndianGuitarChords.Blogspot.Com (™ ©) / Arindam Sarkar © - MMVIII - MMXVI