Desi Chords:

0 comment(s) so far...have your say!

Na Tum Hamen Jano, Na Hum Tumhe Jaane : Tabs


qrcode for - Na Tum Hamen Jano, Na Hum Tumhe Jaane : TabsSong: Na Tum Hamen Jano
Artist: Hemant Kumar, Suman Kalyanpur
From: Baat Ek Raat Ki (1962)


View:
{ Chords } - { Strum } - { Tabs } - { Lyrics } - { PDF } - { Videos }



Guitar Tabs:
Basic Chorus:
E------------------------------------
A------------------------------------
D------------------------------------
G--------------------------7---------
B-77-87-87578-----77-87-875-7--------
e---5---------------5----------------

E------------------------------------
A------------------------------------
D------------------------------------
G--------7--------7-7----------------
B-7777875--7777875---78-------8------
e----------------------5-87775-------

Basic Verse:
E---------------------------------------
A---------------------------------------
D-57-7-7---75-57-7-7---75-7--776-66-774-
G---4-4--44-----4-4--44----54------4----
B---------------------------------------
e---------------------------------------

E------------------------------------
A------------------------------------
D---------7----------------75--------
G-44-44-54-55-5h7p55h7p55-4----------
B------------------------------------
e------------------------------------


What do these symbols mean? Reading Tabs...
http://desichords.blogspot.com/2009/12/na-tum-hamen-jano-na-hum-tumhe-jaane-3.html




Liked 'Na Tum Hamen Jano, Na Hum Tumhe Jaane : Tabs' enough to share / save?

Na Tum Hamen Jano, Na Hum Tumhe Jaane : Tabs

Comments: 0 comment(s)...have your say!

DesiChords Tip:

Tune your guitar before you start playing.^Top^


 


# Hosted for free on Blogspot.com / "Powered by Blogger." Get yours today at www.blogger.com
# The material collected and made available through these sites is exclusively intended for private study, research & to provide study material for musicians - in good faith. (Copyrights)
# This site uses cookies to offer you a better browsing experience. Kindly read the Terms of Service & Privacy policy and continue only if you agree.
# Copyrights, wherever applicable: IndianGuitarChords.Blogspot.Com (™ ©) / Arindam Sarkar © - MMVIII - MMXVI