Desi Chords:

0 comment(s) so far...have your say!

Vande Mataram (Indian National Song) : Tabs


qrcode for - Vande Mataram (Indian National Song) : TabsSong: Vande Mataram (Indian National Song)
Artist: Bankimchandra Chattopadhyay


View:
{ Chords } - { Strum } - { Tabs } - { Lyrics } - { PDF } - { Videos }



Guitar Tabs:
E------------------------------------
A------------------------------------
D------------------------------------
G-7----------------------------------
B--5-8-8---8-------------------------
e-----5-5---5-9(10)9(10)-------------

E------------------------------------
A------------------------------------
D------------------------------------
G-------------------------------7----
B-----------------8-875-5-88-757-----
e-(10)(12)8-875-57-------5-----------

E------------------------------------
A------------------------------------
D------------------------------------
G-7----------------------------------
B--5-8-8---------8-------------------
e-----5-5--58775--5-9(10)9(10)-------

E--------------------------------------
A--------------------------------------
D--------------------------------------
G--------------------------------------
B-8------------------------------------
e--599-99(10)9(10)-9(10)-99-9(10)9(10)-

E---------------------------------------
A---------------------------------------
D---------------------------------------
G-------------------------------------7-
B---------------------58p7-775-5-88757--
e-9(12)(10)8-8p7h8775-----------5-------

E------------------------------------
A------------------------------------
D------------------------------------
G-7--------------7-------------------
B--5----------57--5------------------
e---4-444-4545------45-45------------


What do these symbols mean? Reading Tabs...
http://desichords.blogspot.com/2010/01/vande-mataram-indian-national-song-3.html




Liked 'Vande Mataram (Indian National Song) : Tabs' enough to share / save?

Vande Mataram (Indian National Song) : Tabs

Comments: 0 comment(s)...have your say!

DesiChords Tip:

Tune your guitar before you start playing.^Top^


 


# Hosted for free on Blogspot.com / "Powered by Blogger." Get yours today at www.blogger.com
# The material collected and made available through these sites is exclusively intended for private study, research & to provide study material for musicians - in good faith. (Copyrights)
# This site uses cookies to offer you a better browsing experience. Kindly read the Terms of Service & Privacy policy and continue only if you agree.
# Copyrights, wherever applicable: IndianGuitarChords.Blogspot.Com (™ ©) / Arindam Sarkar © - MMVIII - MMXVI