Desi Chords:

2 comment(s) so far...have your say!

Aa Chal Ke Tujhe Main Leke Chaloon : Tabs


qrcode for - Aa Chal Ke Tujhe Main Leke Chaloon : TabsSong: Aa Chal Ke Tujhe Main Leke Chaloon
Artist: Kishore Kumar
From: Door Gagan Ki Chhaon Mein (1964)


View:
{ Chords } - { Strum } - { Tabs } - { Lyrics } - { PDF } - { Videos }



Guitar Tabs:
Basic Chorus:
E----------------------------------------------------
A----------------------------------------------------
D-8----8----8-----------8----8-----------8-----------
G--88-8-88-8-88-------------------878-----88-------8-
B----6----6----6898-986--6686-6686-----8----6898-86--
e------------------------------------64--------------

Basic Verse:
E------------------------------------
A------------------------------------
D------------------------------------
G-----8------------------------------
B-8-86-8-----88-89------99-----------
e--6----668-6-----666-86--866--------

E------------------------------------
A------------------------------------
D------------------------------------
G-------------------------88---------
B-9-------98-986--986-98-6-----------
e--8886-86------66-------------------


What do these symbols mean?
Reading tabs...
http://desichords.blogspot.com/2010/02/aa-chal-ke-tujhe-main-leke-chaloon-3.html




Liked 'Aa Chal Ke Tujhe Main Leke Chaloon : Tabs' enough to share / save?

Aa Chal Ke Tujhe Main Leke Chaloon : Tabs

Comments: 2 comment(s)...have your say!

Abhisaid...

Thanks a lot for the wonderful tabs...awesome work

Dr. Arindam Sarkarsaid...

Thankyou Abhi. :)

DesiChords Tip:

Tune your guitar before you start playing.^Top^


 


# Hosted for free on Blogspot.com / "Powered by Blogger." Get yours today at www.blogger.com
# The material collected and made available through these sites is exclusively intended for private study, research & to provide study material for musicians - in good faith. (Copyrights)
# This site uses cookies to offer you a better browsing experience. Kindly read the Terms of Service & Privacy policy and continue only if you agree.
# Copyrights, wherever applicable: IndianGuitarChords.Blogspot.Com (™ ©) / Arindam Sarkar © - MMVIII - MMXVI