Desi Chords:

0 comment(s) so far...have your say!

Aahun Aahun (Love Aaj Kal) : Tabs


qrcode for - Aahun Aahun (Love Aaj Kal) : TabsSong: Aahun Aahun
Artist: Master Saleem, Neeraj Shridhar, Suzanne D'Mello,
From: Love Aaj Kal (2009)


View:
{ Chords } - { Strum } - { Tabs } - { Lyrics } - { PDF } - { Videos }



Guitar Tabs
Basic Chorus 1:
E------------------------------------
A------------------------------------
D------------------------------------
G-666----------6h7-767-7-7p666-------
B----57-75-75-5-------5--------------
e------4--4--------------------(X2)--

E------------------------------------
A------------------------------------
D------------------------------------
G------------------------------------
B----------75---------75-------------
e-44444-554--44444-554---------------

E------------------------------------
A------------------------------------
D------------------------------------
G-666----------6h7-767-7-7p666-------
B----57-75-75-5-------5--------------
e------4--4--------------------------

Basic Verse:
E------------------------------------
A------------------------------------
D------------------------------------
G--------6------6--------------------
B-5555554-555554-55555752p4p0--------
e------------------------------------

E------------------------------------
A------------------------------------
D------------------------------------
G------64-----64---------------------
B-44444--44444--4444454-2h4h5--------
e------------------------------------

E------------------------------------
A------------------------------------
D------------------------------------
G-6666568-6666568-6---------------7--
B----------------------754-4574-54---
e------------------44-4--------------

Chorus 2:
E------------------------------------
A------------------------------------
D------------------------------------
G-6--6--6--6--6--6---------66--------
B--44-45-44-45-44-4775-4454----------
e------------------------------(X3)--


What do these symbols mean?
Reading Tabs...
http://desichords.blogspot.com/2010/02/aahun-aahun-love-aaj-kal-3-tabs-n-pdf.html




Liked 'Aahun Aahun (Love Aaj Kal) : Tabs' enough to share / save?

Aahun Aahun (Love Aaj Kal) : Tabs

Comments: 0 comment(s)...have your say!

DesiChords Tip:

Tune your guitar before you start playing.^Top^


 


# Hosted for free on Blogspot.com / "Powered by Blogger." Get yours today at www.blogger.com
# The material collected and made available through these sites is exclusively intended for private study, research & to provide study material for musicians - in good faith. (Copyrights)
# This site uses cookies to offer you a better browsing experience. Kindly read the Terms of Service & Privacy policy and continue only if you agree.
# Copyrights, wherever applicable: IndianGuitarChords.Blogspot.Com (™ ©) / Arindam Sarkar © - MMVIII - MMXVI