Desi Chords:

0 comment(s) so far...have your say!

Ajj Din Chadheya (Love Aaj Kal) : Tabs


qrcode for - Ajj Din Chadheya (Love Aaj Kal) : TabsSong: Ajj Din Chadheya
Artist: Rahat Fateh Ali Khan
From: Love Aaj Kal (2009)


View:
{ Chords } - { Strum } - { Tabs } - { Lyrics } - { PDF } - { Videos }



Guitar Tabs:
Basic Chorus:
Ajj din chadheya, tere rang warga...
E------------------------------------
A------------------------------------
D------------------------------------
G-67------7p6-6----------------------
B---55--75-----5------77-------------
e-----54--------55h7-4---------X2----

E---------------------------------------------------
A----------------7-------------------7--------------
D-------7---|---7-7-----------------7-7-----------7-
G-6--764-64-|-64---44h6-467--44h6-64---44h6-647764--
B--75-------|--------------57-----------------------
e-----------|---------------------------------------(X2)

Basic Verse:
E--------------------------------------
A--------------------------------------
D--------------------------------------
G-67--76-67--76-6--------7646-------67-
B---55-----55----7----7p5----5h755-----
e-----------------4h54-----------------(X2)

E------------------------------------
A------------------------------------
D------------------------------------
G-------------------764--------------
B------------575-575-----------------
e-5-555h7-444------------------------


What do these symbols mean? Reading Tabs...
http://desichords.blogspot.com/2010/02/ajj-din-chadheya-love-aaj-kal-3-tabs-n.html




Liked 'Ajj Din Chadheya (Love Aaj Kal) : Tabs' enough to share / save?

Ajj Din Chadheya (Love Aaj Kal) : Tabs

Comments: 0 comment(s)...have your say!

DesiChords Tip:

Tune your guitar before you start playing.^Top^


 


# Hosted for free on Blogspot.com / "Powered by Blogger." Get yours today at www.blogger.com
# The material collected and made available through these sites is exclusively intended for private study, research & to provide study material for musicians - in good faith. (Copyrights)
# This site uses cookies to offer you a better browsing experience. Kindly read the Terms of Service & Privacy policy and continue only if you agree.
# Copyrights, wherever applicable: IndianGuitarChords.Blogspot.Com (™ ©) / Arindam Sarkar © - MMVIII - MMXVI