Desi Chords:

0 comment(s) so far...have your say!

Aye Zindagi Gale Lagaa Le (Sadma : Suresh Wadkar) : Tabs


qrcode for - Aye Zindagi Gale Lagaa Le (Sadma : Suresh Wadkar) : TabsSong: Aye Zindagi Gale Lagaa Le
Artist: Suresh Wadkar
From: Sadma (1983)


View:
{ Chords } - { Strum } - { Tabs } - { Lyrics } - { PDF } - { Videos }



Guitar Tabs:
Basic Chorus:
E------------------------------------------
A------------------------------------------
D------------------------------------------
G-7----------7-----------------------------
B---8---8686---8---8686------------------8-
e--5-5-5------5-5-5-------(10)95-55445-87--

E------------------------------------
A------------------------------------
D------------------------------------
G--------------------7---------------
B-88p778---6-88s(10)---8s(10)--------
e--------65-----------5--------------


What do these symbols mean? Reading Tab...
http://desichords.blogspot.com/2010/02/aye-zindagi-gale-lagaa-le-sadma-suresh.html




Liked 'Aye Zindagi Gale Lagaa Le (Sadma : Suresh Wadkar) : Tabs' enough to share / save?

Aye Zindagi Gale Lagaa Le (Sadma : Suresh Wadkar) : Tabs

Comments: 0 comment(s)...have your say!

DesiChords Tip:

Tune your guitar before you start playing.^Top^


 


# Hosted for free on Blogspot.com / "Powered by Blogger." Get yours today at www.blogger.com
# The material collected and made available through these sites is exclusively intended for private study, research & to provide study material for musicians - in good faith. (Copyrights)
# This site uses cookies to offer you a better browsing experience. Kindly read the Terms of Service & Privacy policy and continue only if you agree.
# Copyrights, wherever applicable: IndianGuitarChords.Blogspot.Com (™ ©) / Arindam Sarkar © - MMVIII - MMXVI