Desi Chords:

0 comment(s) so far...have your say!

Chor Bazaari (Love Aaj Kal) : Tabs


qrcode for - Chor Bazaari (Love Aaj Kal) : TabsSong: Chor Bazaari
Artist: Neeraj Shridhar, Sunidhi Chauhan
From: Love Aaj Kal (2009)


View:
{ Chords } - { Strum } - { Tabs } - { Lyrics } - { PDF } - { Videos }



Guitar Tabs:
Theme:
E-------------------------|--------------------
A-------------------------|--------------------
D-------------------------|--------------------
G------6-67---------------|--------9-----------
B---9-7----7--------------|---97-97-7----------
e-77-7------979-(repeats)-|-77-------(repeats)-

Basic Verse:
E------------------------------------
A------------------------------------
D---9---------9-----999--------------
G-86-6------86-6h8-6-----------------
B-----777h9--------------------------
e------------------------------------X2

E-------------------------------------------
A-------------------------------------------
D-----------------------------------------9-
G------------------9-999--------9866-66-86--
B-----9999----7h999-----9-77-777------------
e-7777----7777------------------------------

E------------------------------------
A------------------------------------
D---9---------9-----999--------------
G-86-6------86-6h8-6-----------------
B-----777h9--------------------------
e------------------------------------X2


What do these symbols mean? Reading Tabs...
http://desichords.blogspot.com/2010/02/chor-bazaari-love-aaj-kal-3-tabs-n-pdf.html




Liked 'Chor Bazaari (Love Aaj Kal) : Tabs' enough to share / save?

Chor Bazaari (Love Aaj Kal) : Tabs

Comments: 0 comment(s)...have your say!

DesiChords Tip:

Tune your guitar before you start playing.^Top^


 


# Hosted for free on Blogspot.com / "Powered by Blogger." Get yours today at www.blogger.com
# The material collected and made available through these sites is exclusively intended for private study, research & to provide study material for musicians - in good faith. (Copyrights)
# This site uses cookies to offer you a better browsing experience. Kindly read the Terms of Service & Privacy policy and continue only if you agree.
# Copyrights, wherever applicable: IndianGuitarChords.Blogspot.Com (™ ©) / Arindam Sarkar © - MMVIII - MMXVI