Desi Chords:

2 comment(s) so far...have your say!

Give Me Some Sunshine (3 Idiots) : Tabs


qrcode for - Give Me Some Sunshine (3 Idiots) : TabsSong: Give Me Some Sunshine
Artist: Suraj Jaggan, Sharman Joshi
From: 3 Idiots (2009)


View:
{ Chords } - { Strum } - { Tabs } - { Lyrics } - { PDF } - { Videos }



Guitar Tabs:
Basic Theme:
E------------------------------------
A------------------------------------
D------------------------------------
G---5--5-----5----5--5425-545s7------
B-55-3--35-55-3-55-3-----------------
e------------------------------------X2

E-------------------------------------------
A-------------------------------------------
D-------------------------------------------
G--------5------5---5--------5h7-5425-545s7-
B-555-53--3-555---3--3-555-53---------------
e-------------------------------------------


What do these symbols mean? Reading Tabs...
http://desichords.blogspot.com/2010/02/give-me-some-sunshine-3-idiots-3-tabs-n.html




Liked 'Give Me Some Sunshine (3 Idiots) : Tabs' enough to share / save?

Give Me Some Sunshine (3 Idiots) : Tabs

Comments: 2 comment(s)...have your say!

vijaysaid...

Hello Sir

I am Fan of yours...your Lessons are very very very helpful.

Just one request..if it is possible can you add lyric below or above each tab line.. so that it will be more easy to lern for beginners also.

Arindam Sarkarsaid...

First of all, thankyou.

Well, you just read my mind. I am planning to do just that, but not getting time to do so. I shall certainly do so in the near future.

DesiChords Tip:

Tune your guitar before you start playing.^Top^


 


# Hosted for free on Blogspot.com / "Powered by Blogger." Get yours today at www.blogger.com
# The material collected and made available through these sites is exclusively intended for private study, research & to provide study material for musicians - in good faith. (Copyrights)
# This site uses cookies to offer you a better browsing experience. Kindly read the Terms of Service & Privacy policy and continue only if you agree.
# Copyrights, wherever applicable: IndianGuitarChords.Blogspot.Com (™ ©) / Arindam Sarkar © - MMVIII - MMXVI