Desi Chords:

0 comment(s) so far...have your say!

Khamaj (Mora Saiyaan, Sawan Beeto Jaye Piharwa : Fuzon) : Tabs


qrcode for - Khamaj (Mora Saiyaan, Sawan Beeto Jaye Piharwa : Fuzon) : TabsSong: Khamaj (Mora Saiyaan)
Artist: Fuzon
From: Saagar (2002)


View:
{ Chords } - { Strum } - { Tabs } - { Lyrics } - { PDF } - { Videos }



Guitar Tabs:
Basic Verse:
E------------------------------------
A------------------------------------
D-----------------------444----------
G-3-333-31-3s4s6-4p3-1h3---3p1h3-----
B------------------------------------
e------------------------------------X2

E------------------------------------
A------------------------------------
D------------------------------------
G----33----4p3----33----4p3----------
B-222--2--4----222--2--4-------------
e-------21-----------21--------------

E------------------------------------
A------------------------------------
D-----------------------444----------
G-3-333-31-3s4s6-4p3-1h3---3p1h3-----
B------------------------------------
e------------------------------------X2

E------------------------------------
A------------------------------------
D------------------------------------
G----33----4p3----33----4p3----------
B-222--2--4----222--2--4-------------
e-------21-----------21--------------

Basic Chorus:
E------------------------------------
A------------------------------------
D----6446---------6446---------------
G-343----643-34h54----643------------
B------------------------------------
e------------------------------------

E------------------------------------
A------------------------------------
D------------------------------------
G-3h4h6-6666336-----64h3-------------
B--------------7-6-4-----------------
e------------------------------------X2

E------------------------------------
A------------------------------------
D----6446---------6446---------------
G-343----643-34h54----643------------
B------------------------------------
e------------------------------------


What do these symbols mean? Reading Tabs...
http://desichords.blogspot.com/2010/02/khamaj-mora-saiyaan-sawan-beeto-jaye.html




Liked 'Khamaj (Mora Saiyaan, Sawan Beeto Jaye Piharwa : Fuzon) : Tabs' enough to share / save?

Khamaj (Mora Saiyaan, Sawan Beeto Jaye Piharwa : Fuzon) : Tabs

Comments: 0 comment(s)...have your say!

DesiChords Tip:

Tune your guitar before you start playing.^Top^


 


# Hosted for free on Blogspot.com / "Powered by Blogger." Get yours today at www.blogger.com
# The material collected and made available through these sites is exclusively intended for private study, research & to provide study material for musicians - in good faith. (Copyrights, TOS & Privacy policy)
# Copyrights, wherever applicable: IndianGuitarChords.Blogspot.Com (™ ©) / Arindam Sarkar © - MMVIII - MMXIV