Desi Chords:

0 comment(s) so far...have your say!

Mere Naina Sawan Bhadon (Kishore Kumar) : Tabs


qrcode for - Mere Naina Sawan Bhadon (Kishore Kumar) : TabsSong: Mere Naina Sawan Bhadon
Artist: Kishore Kumar
From: Mehbooba (1976)


View:
{ Chords } - { Strum } - { Tabs } - { Lyrics } - { PDF } - { Videos }



Guitar Tabs:
Basic Chorus:
E--------------------------------------------------
A------------------------------6-6656-56----65-653-
D-5--------55--5--------5--5775---------5775-------
G--54h55-52--2--54h55-52-2-------------------------
B-------3------------3-----------------------------
e--------------------------------------------------(X2)

Basic Verse:
E-------------------------------------------
A-356----6-5-653-356------------------------
D----5-75-----------5-77766-555---5-555---5-
G------------------------------232-----232--
B-------------------------------------------
e-------------------------------------------

E---------------------------------------------------------
A-------------------|-------------------6-66-56----65-654-
D-555-----------7---|-5-7-----75-5-7-577-------5775-------
G----5-757----75-755|--5-55-75----------------------------
B---------4-55------|-------------------------------------
e-------------------|-------------------------------------


What do these symbols mean? Reading Tabs...
http://desichords.blogspot.com/2010/02/mere-naina-sawan-bhadon-kishore-kumar-3.html




Liked 'Mere Naina Sawan Bhadon (Kishore Kumar) : Tabs' enough to share / save?

Mere Naina Sawan Bhadon (Kishore Kumar) : Tabs

Comments: 0 comment(s)...have your say!

DesiChords Tip:

Tune your guitar before you start playing.^Top^


 


# Hosted for free on Blogspot.com / "Powered by Blogger." Get yours today at www.blogger.com
# The material collected and made available through these sites is exclusively intended for private study, research & to provide study material for musicians - in good faith. (Copyrights)
# This site uses cookies to offer you a better browsing experience. Kindly read the Terms of Service & Privacy policy and continue only if you agree.
# Copyrights, wherever applicable: IndianGuitarChords.Blogspot.Com (™ ©) / Arindam Sarkar © - MMVIII - MMXVI