Desi Chords:

0 comment(s) so far...have your say!

Rehna Tu (Delhi-6 : Rahman) : Tabs


qrcode for - Rehna Tu (Delhi-6 : Rahman) : TabsSong: Rehna Tu
Artist: Tanvi Shah,Benny Dayal, A. R. Rahman
From: Delhi-6 (2009)


View:
{ Chords }  - { Strum }  - { Tabs }  - { Lyrics }  - { PDF }  - { Videos }



Guitar Tabs:
Basic Chorus:
E------------------------------------0
A-------------------------------------
D---------------------------------5h7-
G-----------5h7-5h77-5h77-5s22-545----
B-58-----588--------------------------
e----3h5-5----------------------------X2

E-------------------------------------
A-------------------------------------
D-7---7--7----77h9-------------333577-
G--454-54-5444----44445h7-445h7-------
B-------------------------------------
e-------------------------------------

E--------------------------------------------
A--------------------------------------------
D-7---7--7----77h9---------------------------
G--454-54-5444----44445h7-445h7-777------9s7-
B----------------------------------777-77----
e--------------------------------------------

E------------------------------------
A------------------------------------
D---7h97----------------9s7-9-9s7----
G-45----44424-444424-444-----5-------
B------------------------------------
e------------------------------------

E------------------------------------
A---------------------------7--------
D---7h97----------------9s7----------
G-45----44424-444424-444-------------
B------------------------------------
e------------------------------------

Basic Verse:
E------------------------------------
A------------------------------------
D-7-7------------7-------------------
G----46-6-6----64--------------------
B--------5-5-75---5h777-7-75---------
e-----------54-----------5-----------

E------------------------------------
A------------------------------------
D----------------7--------7----------
G---------6646-44--6646-44-----------
B-5h77--75---------------------------
e-----54-----------------------------


What do these symbols mean? Reading Tabs...
http://desichords.blogspot.com/2010/02/rehna-tu-delhi-6-3-tabs-n-pdf.html




Liked 'Rehna Tu (Delhi-6 : Rahman) : Tabs' enough to share / save?

Rehna Tu (Delhi-6 : Rahman) : Tabs

Comments: 0 comment(s)...have your say!

DesiChords Tip:

Tune your guitar before you start playing.^Top^


 


# Hosted for free on Blogspot.com / "Powered by Blogger." Get yours today at www.blogger.com
# The material collected and made available through these sites is exclusively intended for private study, research & to provide study material for musicians - in good faith. (Copyrights)
# This site uses cookies to offer you a better browsing experience. Kindly read the Terms of Service & Privacy policy and continue only if you agree.
# Copyrights, wherever applicable: IndianGuitarChords.Blogspot.Com (™ ©) / Arindam Sarkar © - MMVIII - MMXVI