Desi Chords:

0 comment(s) so far...have your say!

Tum Mile (Tum Mile) : Tabs


qrcode for - Tum Mile (Tum Mile) : TabsSong: Tum Mile (Title Track)
Artist: Neeraj Shridhar
From: Tum Mile (2009)


View:
{ Chords } - { Strum } - { Tabs } - { Lyrics } - { PDF } - { Videos }



Guitar Tabs:
Basic Verse:
E--------------------------------------------
A--------------------------------------------
D-----------------------------------55555-32-
G-4555-4455---5-3-55555-44444-22222----------
B----------5-3-2-----------------------------
e--------------------------------------------X2

Basic Chorus:
E------------------------------------------
A------------------------------------------
D------------------------------------5-----
G-5--------5------5-5524-452-542-2245---45-
B---3h5-553-3-3-53---------------------3---
e--3---------3-----------------------------X2


What do these symbols mean? Reading Tabs...
http://desichords.blogspot.com/2010/02/tum-mile-tum-mile-title-3-tabs-n-pdf.html




Liked 'Tum Mile (Tum Mile) : Tabs' enough to share / save?

Tum Mile (Tum Mile) : Tabs

Comments: 0 comment(s)...have your say!

DesiChords Tip:

Tune your guitar before you start playing.^Top^


 


# Hosted for free on Blogspot.com / "Powered by Blogger." Get yours today at www.blogger.com
# The material collected and made available through these sites is exclusively intended for private study, research & to provide study material for musicians - in good faith. (Copyrights)
# This site uses cookies to offer you a better browsing experience. Kindly read the Terms of Service & Privacy policy and continue only if you agree.
# Copyrights, wherever applicable: IndianGuitarChords.Blogspot.Com (™ ©) / Arindam Sarkar © - MMVIII - MMXVI