Desi Chords:

2 comment(s) so far...have your say!

Yeh Dooriyan (Love Aaj Kal) : Tabs


qrcode for - Yeh Dooriyan (Love Aaj Kal) : TabsSong: Yeh Dooriyan
Artist: Mohit Chauhan
From: Love Aaj Kal (2009)


View:
{ Chords } - { Strum } - { Tabs } - { Lyrics } - { PDF } - { Videos }



Guitar Tabs:
Basic Chorus:
E--------------------------------------------------------
A--------------------------------------------------------
D--------------8p7p5--------------------8p7p5------------
G-33573-35-5-75-----3375-35s73-35-5-5h75-----333-755h733-
B---------6----------------------6-----------------------
e--------------------------------------------------------

Basic Verse:
E------------------------------------
A------------------------------------
D------------------------------------
G-5-35-35-35-35--55-33---------------
B--3--3--3--3--43--3-----------------
e------------------------------------X2


What do these symbols mean? Reading Tabs...
http://desichords.blogspot.com/2010/02/yeh-dooriyan-love-aaj-kal-3-tabs-n-pdf.html




Liked 'Yeh Dooriyan (Love Aaj Kal) : Tabs' enough to share / save?

Yeh Dooriyan (Love Aaj Kal) : Tabs

Comments: 2 comment(s)...have your say!

hakimsaid...

thank u for such a useful site here, i couldn't know what is ( 8p, 7p and 5h and such things), please help

Arindam Sarkarsaid...

Thanks Hakim.
Those are notations of tabs - read more here : http://basicmusictheory.blogspot.in/2008/12/reading-guitar-tabulatute-tabs-2-hammer.html

DesiChords Tip:

Tune your guitar before you start playing.^Top^


 


# Hosted for free on Blogspot.com / "Powered by Blogger." Get yours today at www.blogger.com
# The material collected and made available through these sites is exclusively intended for private study, research & to provide study material for musicians - in good faith. (Copyrights)
# This site uses cookies to offer you a better browsing experience. Kindly read the Terms of Service & Privacy policy and continue only if you agree.
# Copyrights, wherever applicable: IndianGuitarChords.Blogspot.Com (™ ©) / Arindam Sarkar © - MMVIII - MMXVI